  0
SECTION
  2
HEADER
  9
$ACADVER
  1
AC1018
  9
$ACADMAINTVER
 70
     0
  9
$DWGCODEPAGE
  3
ANSI_932
  9
$INSBASE
 10
0.0
 20
0.0
 30
0.0
  9
$EXTMIN
 10
1.000000000000000E+20
 20
1.000000000000000E+20
 30
1.000000000000000E+20
  9
$EXTMAX
 10
-1.000000000000000E+20
 20
-1.000000000000000E+20
 30
-1.000000000000000E+20
  9
$LIMMIN
 10
0.0
 20
0.0
  9
$LIMMAX
 10
12.0
 20
9.0
  9
$ORTHOMODE
 70
     0
  9
$REGENMODE
 70
     1
  9
$FILLMODE
 70
     1
  9
$QTEXTMODE
 70
     0
  9
$MIRRTEXT
 70
     1
  9
$LTSCALE
 40
1.0
  9
$ATTMODE
 70
     1
  9
$TEXTSIZE
 40
0.2
  9
$TRACEWID
 40
0.05
  9
$TEXTSTYLE
  7
Standard
  9
$CLAYER
  8
0
  9
$CELTYPE
  6
ByLayer
  9
$CECOLOR
 62
   256
  9
$CELTSCALE
 40
1.0
  9
$DISPSILH
 70
     0
  9
$DIMSCALE
 40
1.0
  9
$DIMASZ
 40
0.18
  9
$DIMEXO
 40
0.0625
  9
$DIMDLI
 40
0.38
  9
$DIMRND
 40
0.0
  9
$DIMDLE
 40
0.0
  9
$DIMEXE
 40
0.18
  9
$DIMTP
 40
0.0
  9
$DIMTM
 40
0.0
  9
$DIMTXT
 40
0.18
  9
$DIMCEN
 40
0.09
  9
$DIMTSZ
 40
0.0
  9
$DIMTOL
 70
     0
  9
$DIMLIM
 70
     0
  9
$DIMTIH
 70
     1
  9
$DIMTOH
 70
     1
  9
$DIMSE1
 70
     0
  9
$DIMSE2
 70
     0
  9
$DIMTAD
 70
     0
  9
$DIMZIN
 70
     0
  9
$DIMBLK
  1

  9
$DIMASO
 70
     1
  9
$DIMSHO
 70
     1
  9
$DIMPOST
  1

  9
$DIMAPOST
  1

  9
$DIMALT
 70
     0
  9
$DIMALTD
 70
     2
  9
$DIMALTF
 40
25.4
  9
$DIMLFAC
 40
1.0
  9
$DIMTOFL
 70
     0
  9
$DIMTVP
 40
0.0
  9
$DIMTIX
 70
     0
  9
$DIMSOXD
 70
     0
  9
$DIMSAH
 70
     0
  9
$DIMBLK1
  1

  9
$DIMBLK2
  1

  9
$DIMSTYLE
  2
Standard
  9
$DIMCLRD
 70
     0
  9
$DIMCLRE
 70
     0
  9
$DIMCLRT
 70
     0
  9
$DIMTFAC
 40
1.0
  9
$DIMGAP
 40
0.09
  9
$DIMJUST
 70
     0
  9
$DIMSD1
 70
     0
  9
$DIMSD2
 70
     0
  9
$DIMTOLJ
 70
     1
  9
$DIMTZIN
 70
     0
  9
$DIMALTZ
 70
     0
  9
$DIMALTTZ
 70
     0
  9
$DIMUPT
 70
     0
  9
$DIMDEC
 70
     4
  9
$DIMTDEC
 70
     4
  9
$DIMALTU
 70
     2
  9
$DIMALTTD
 70
     2
  9
$DIMTXSTY
  7
Standard
  9
$DIMAUNIT
 70
     0
  9
$DIMADEC
 70
     0
  9
$DIMALTRND
 40
0.0
  9
$DIMAZIN
 70
     0
  9
$DIMDSEP
 70
    46
  9
$DIMATFIT
 70
     3
  9
$DIMFRAC
 70
     0
  9
$DIMLDRBLK
  1

  9
$DIMLUNIT
 70
     2
  9
$DIMLWD
 70
    -2
  9
$DIMLWE
 70
    -2
  9
$DIMTMOVE
 70
     0
  9
$LUNITS
 70
     2
  9
$LUPREC
 70
     4
  9
$SKETCHINC
 40
0.1
  9
$FILLETRAD
 40
0.5
  9
$AUNITS
 70
     0
  9
$AUPREC
 70
     0
  9
$MENU
  1
.
  9
$ELEVATION
 40
0.0
  9
$PELEVATION
 40
0.0
  9
$THICKNESS
 40
0.0
  9
$LIMCHECK
 70
     0
  9
$CHAMFERA
 40
0.5
  9
$CHAMFERB
 40
0.5
  9
$CHAMFERC
 40
1.0
  9
$CHAMFERD
 40
0.0
  9
$SKPOLY
 70
     0
  9
$TDCREATE
 40
2456819.684571759
  9
$TDUCREATE
 40
2456819.642905093
  9
$TDUPDATE
 40
2456819.684571771
  9
$TDUUPDATE
 40
2456819.642905104
  9
$TDINDWG
 40
0.0000000116
  9
$TDUSRTIMER
 40
0.0000000116
  9
$USRTIMER
 70
     1
  9
$ANGBASE
 50
0.0
  9
$ANGDIR
 70
     0
  9
$PDMODE
 70
     0
  9
$PDSIZE
 40
0.0
  9
$PLINEWID
 40
0.0
  9
$SPLFRAME
 70
     0
  9
$SPLINETYPE
 70
     6
  9
$SPLINESEGS
 70
     8
  9
$HANDSEED
  5
14A
  9
$SURFTAB1
 70
     6
  9
$SURFTAB2
 70
     6
  9
$SURFTYPE
 70
     6
  9
$SURFU
 70
     6
  9
$SURFV
 70
     6
  9
$UCSBASE
  2

  9
$UCSNAME
  2

  9
$UCSORG
 10
0.0
 20
0.0
 30
0.0
  9
$UCSXDIR
 10
1.0
 20
0.0
 30
0.0
  9
$UCSYDIR
 10
0.0
 20
1.0
 30
0.0
  9
$UCSORTHOREF
  2

  9
$UCSORTHOVIEW
 70
     0
  9
$UCSORGTOP
 10
0.0
 20
0.0
 30
0.0
  9
$UCSORGBOTTOM
 10
0.0
 20
0.0
 30
0.0
  9
$UCSORGLEFT
 10
0.0
 20
0.0
 30
0.0
  9
$UCSORGRIGHT
 10
0.0
 20
0.0
 30
0.0
  9
$UCSORGFRONT
 10
0.0
 20
0.0
 30
0.0
  9
$UCSORGBACK
 10
0.0
 20
0.0
 30
0.0
  9
$PUCSBASE
  2

  9
$PUCSNAME
  2

  9
$PUCSORG
 10
0.0
 20
0.0
 30
0.0
  9
$PUCSXDIR
 10
1.0
 20
0.0
 30
0.0
  9
$PUCSYDIR
 10
0.0
 20
1.0
 30
0.0
  9
$PUCSORTHOREF
  2

  9
$PUCSORTHOVIEW
 70
     0
  9
$PUCSORGTOP
 10
0.0
 20
0.0
 30
0.0
  9
$PUCSORGBOTTOM
 10
0.0
 20
0.0
 30
0.0
  9
$PUCSORGLEFT
 10
0.0
 20
0.0
 30
0.0
  9
$PUCSORGRIGHT
 10
0.0
 20
0.0
 30
0.0
  9
$PUCSORGFRONT
 10
0.0
 20
0.0
 30
0.0
  9
$PUCSORGBACK
 10
0.0
 20
0.0
 30
0.0
  9
$USERI1
 70
     0
  9
$USERI2
 70
     0
  9
$USERI3
 70
     0
  9
$USERI4
 70
     0
  9
$USERI5
 70
     0
  9
$USERR1
 40
0.0
  9
$USERR2
 40
0.0
  9
$USERR3
 40
0.0
  9
$USERR4
 40
0.0
  9
$USERR5
 40
0.0
  9
$WORLDVIEW
 70
     1
  9
$SHADEDGE
 70
     3
  9
$SHADEDIF
 70
    70
  9
$TILEMODE
 70
     1
  9
$MAXACTVP
 70
    64
  9
$PINSBASE
 10
0.0
 20
0.0
 30
0.0
  9
$PLIMCHECK
 70
     0
  9
$PEXTMIN
 10
1.000000000000000E+20
 20
1.000000000000000E+20
 30
1.000000000000000E+20
  9
$PEXTMAX
 10
-1.000000000000000E+20
 20
-1.000000000000000E+20
 30
-1.000000000000000E+20
  9
$PLIMMIN
 10
0.0
 20
0.0
  9
$PLIMMAX
 10
12.0
 20
9.0
  9
$UNITMODE
 70
     0
  9
$VISRETAIN
 70
     1
  9
$PLINEGEN
 70
     0
  9
$PSLTSCALE
 70
     1
  9
$TREEDEPTH
 70
  3020
  9
$CMLSTYLE
  2
Standard
  9
$CMLJUST
 70
     0
  9
$CMLSCALE
 40
1.0
  9
$PROXYGRAPHICS
 70
     1
  9
$MEASUREMENT
 70
     0
  9
$CELWEIGHT
370
    -1
  9
$ENDCAPS
280
     0
  9
$JOINSTYLE
280
     0
  9
$LWDISPLAY
290
     1
  9
$INSUNITS
 70
     1
  9
$HYPERLINKBASE
  1

  9
$STYLESHEET
  1

  9
$XEDIT
290
     1
  9
$CEPSNTYPE
380
     0
  9
$PSTYLEMODE
290
     1
  9
$FINGERPRINTGUID
  2
{570ADB89-0EC1-ABCF-EF5F-572B0E180A21}
  9
$VERSIONGUID
  2
{FAEB1C32-E019-11D5-929B-00C0DF256EC4}
  9
$EXTNAMES
290
     1
  9
$PSVPSCALE
 40
0.0
  9
$OLESTARTUP
290
     0
  9
$SORTENTS
280
   127
  9
$INDEXCTL
280
     0
  9
$HIDETEXT
280
     1
  9
$XCLIPFRAME
290
     0
  9
$HALOGAP
280
     0
  9
$OBSCOLOR
 70
   257
  9
$OBSLTYPE
280
     0
  9
$INTERSECTIONDISPLAY
280
     0
  9
$INTERSECTIONCOLOR
 70
   257
  9
$DIMASSOC
280
     2
  9
$PROJECTNAME
  1

  0
ENDSEC
  0
SECTION
  2
CLASSES
  0
CLASS
  1
ACDBDICTIONARYWDFLT
  2
AcDbDictionaryWithDefault
  3
ObjectDBX Classes
 90
        0
 91
        3
280
     0
281
     0
  0
CLASS
  1
VISUALSTYLE
  2
AcDbVisualStyle
  3
ObjectDBX Classes
 90
     4095
 91
        3
280
     0
281
     0
  0
ENDSEC
  0
SECTION
  2
TABLES
  0
TABLE
  2
VPORT
  5
8
330
0
100
AcDbSymbolTable
 70
     1
  0
VPORT
  5
29
330
8
100
AcDbSymbolTableRecord
100
AcDbViewportTableRecord
  2
*Active
 70
     0
 10
0.0
 20
0.0
 11
1.0
 21
1.0
 12
0.0
 22
0.0
 13
0.0
 23
0.0
 14
0.5
 24
0.5
 15
0.5
 25
0.5
 16
0.0
 26
0.0
 36
1.0
 17
105.0008259828644
 27
-148.4999796178229
 37
0.0
 40
210.0016519657287
 41
1.414274394775308
 42
50.0
 43
0.0
 44
0.0
 50
0.0
 51
0.0
 71
     0
 72
   100
 73
     1
 74
     3
 75
     0
 76
     0
 77
     0
 78
     0
281
     0
 65
     1
110
0.0
120
0.0
130
0.0
111
1.0
121
0.0
131
0.0
112
0.0
122
1.0
132
0.0
 79
     0
146
0.0
  0
ENDTAB
  0
TABLE
  2
LTYPE
  5
5
330
0
100
AcDbSymbolTable
 70
     1
  0
LTYPE
  5
14
330
5
100
AcDbSymbolTableRecord
100
AcDbLinetypeTableRecord
  2
ByBlock
 70
     0
  3

 72
    65
 73
     0
 40
0.0
  0
LTYPE
  5
15
330
5
100
AcDbSymbolTableRecord
100
AcDbLinetypeTableRecord
  2
ByLayer
 70
     0
  3

 72
    65
 73
     0
 40
0.0
  0
LTYPE
  5
16
330
5
100
AcDbSymbolTableRecord
100
AcDbLinetypeTableRecord
  2
Continuous
 70
     0
  3
Solid line
 72
    65
 73
     0
 40
0.0
  0
ENDTAB
  0
TABLE
  2
LAYER
  5
2
330
0
100
AcDbSymbolTable
 70
     2
  0
LAYER
  5
10
330
2
100
AcDbSymbolTableRecord
100
AcDbLayerTableRecord
  2
0
 70
     0
 62
     7
  6
Continuous
370
    -3
390
F
  0
LAYER
  5
3B
330
2
100
AcDbSymbolTableRecord
100
AcDbLayerTableRecord
  2
Ebene 1
 70
     0
 62
     7
  6
Continuous
370
    -3
390
F
  0
ENDTAB
  0
TABLE
  2
STYLE
  5
3
330
0
100
AcDbSymbolTable
 70
     1
  0
STYLE
  5
11
330
3
100
AcDbSymbolTableRecord
100
AcDbTextStyleTableRecord
  2
Standard
 70
     0
 40
0.0
 41
1.0
 50
0.0
 71
     0
 42
0.2
  3
txt
  4

  0
ENDTAB
  0
TABLE
  2
VIEW
  5
6
330
0
100
AcDbSymbolTable
 70
     0
  0
ENDTAB
  0
TABLE
  2
UCS
  5
7
330
0
100
AcDbSymbolTable
 70
     0
  0
ENDTAB
  0
TABLE
  2
APPID
  5
9
330
0
100
AcDbSymbolTable
 70
     1
  0
APPID
  5
12
330
9
100
AcDbSymbolTableRecord
100
AcDbRegAppTableRecord
  2
ACAD
 70
     0
  0
ENDTAB
  0
TABLE
  2
DIMSTYLE
  5
A
330
0
100
AcDbSymbolTable
 70
     1
100
AcDbDimStyleTable
  0
DIMSTYLE
105
27
330
A
100
AcDbSymbolTableRecord
100
AcDbDimStyleTableRecord
  2
Standard
 70
     0
340
11
  0
ENDTAB
  0
TABLE
  2
BLOCK_RECORD
  5
1
330
0
100
AcDbSymbolTable
 70
    30
  0
BLOCK_RECORD
  5
1F
330
1
100
AcDbSymbolTableRecord
100
AcDbBlockTableRecord
  2
*Model_Space
340
22
  0
BLOCK_RECORD
  5
1B
330
1
100
AcDbSymbolTableRecord
100
AcDbBlockTableRecord
  2
*Paper_Space
340
1E
  0
BLOCK_RECORD
  5
23
330
1
100
AcDbSymbolTableRecord
100
AcDbBlockTableRecord
  2
*Paper_Space0
340
26
  0
BLOCK_RECORD
  5
3C
330
1
100
AcDbSymbolTableRecord
100
AcDbBlockTableRecord
  2
block 2
340
0
102
{BLKREFS
331
3D
102
}
  0
BLOCK_RECORD
  5
41
330
1
100
AcDbSymbolTableRecord
100
AcDbBlockTableRecord
  2
block 3
340
0
102
{BLKREFS
331
42
102
}
  0
BLOCK_RECORD
  5
46
330
1
100
AcDbSymbolTableRecord
100
AcDbBlockTableRecord
  2
block 4
340
0
102
{BLKREFS
331
47
102
}
  0
BLOCK_RECORD
  5
4B
330
1
100
AcDbSymbolTableRecord
100
AcDbBlockTableRecord
  2
block 5
340
0
102
{BLKREFS
331
4C
102
}
  0
BLOCK_RECORD
  5
53
330
1
100
AcDbSymbolTableRecord
100
AcDbBlockTableRecord
  2
block 6
340
0
102
{BLKREFS
331
54
102
}
  0
BLOCK_RECORD
  5
58
330
1
100
AcDbSymbolTableRecord
100
AcDbBlockTableRecord
  2
block 7
340
0
102
{BLKREFS
331
59
102
}
  0
BLOCK_RECORD
  5
5D
330
1
100
AcDbSymbolTableRecord
100
AcDbBlockTableRecord
  2
block 8
340
0
102
{BLKREFS
331
5E
102
}
  0
BLOCK_RECORD
  5
65
330
1
100
AcDbSymbolTableRecord
100
AcDbBlockTableRecord
  2
block 9
340
0
102
{BLKREFS
331
66
102
}
  0
BLOCK_RECORD
  5
9C
330
1
100
AcDbSymbolTableRecord
100
AcDbBlockTableRecord
  2
block 10
340
0
102
{BLKREFS
331
9D
102
}
  0
BLOCK_RECORD
  5
A4
330
1
100
AcDbSymbolTableRecord
100
AcDbBlockTableRecord
  2
block 11
340
0
102
{BLKREFS
331
A5
102
}
  0
BLOCK_RECORD
  5
A9
330
1
100
AcDbSymbolTableRecord
100
AcDbBlockTableRecord
  2
block 12
340
0
102
{BLKREFS
331
AA
102
}
  0
BLOCK_RECORD
  5
AE
330
1
100
AcDbSymbolTableRecord
100
AcDbBlockTableRecord
  2
block 13
340
0
102
{BLKREFS
331
AF
102
}
  0
BLOCK_RECORD
  5
B3
330
1
100
AcDbSymbolTableRecord
100
AcDbBlockTableRecord
  2
block 14
340
0
102
{BLKREFS
331
B4
102
}
  0
BLOCK_RECORD
  5
B8
330
1
100
AcDbSymbolTableRecord
100
AcDbBlockTableRecord
  2
block 15
340
0
102
{BLKREFS
331
B9
102
}
  0
BLOCK_RECORD
  5
C0
330
1
100
AcDbSymbolTableRecord
100
AcDbBlockTableRecord
  2
block 16
340
0
102
{BLKREFS
331
C1
102
}
  0
BLOCK_RECORD
  5
C5
330
1
100
AcDbSymbolTableRecord
100
AcDbBlockTableRecord
  2
block 17
340
0
102
{BLKREFS
331
C6
102
}
  0
BLOCK_RECORD
  5
CA
330
1
100
AcDbSymbolTableRecord
100
AcDbBlockTableRecord
  2
block 18
340
0
102
{BLKREFS
331
CB
102
}
  0
BLOCK_RECORD
  5
CF
330
1
100
AcDbSymbolTableRecord
100
AcDbBlockTableRecord
  2
block 19
340
0
102
{BLKREFS
331
D0
102
}
  0
BLOCK_RECORD
  5
D4
330
1
100
AcDbSymbolTableRecord
100
AcDbBlockTableRecord
  2
block 20
340
0
102
{BLKREFS
331
D5
102
}
  0
BLOCK_RECORD
  5
D9
330
1
100
AcDbSymbolTableRecord
100
AcDbBlockTableRecord
  2
block 21
340
0
102
{BLKREFS
331
DA
102
}
  0
BLOCK_RECORD
  5
DE
330
1
100
AcDbSymbolTableRecord
100
AcDbBlockTableRecord
  2
block 22
340
0
102
{BLKREFS
331
DF
102
}
  0
BLOCK_RECORD
  5
E6
330
1
100
AcDbSymbolTableRecord
100
AcDbBlockTableRecord
  2
block 23
340
0
102
{BLKREFS
331
E7
102
}
  0
BLOCK_RECORD
  5
EB
330
1
100
AcDbSymbolTableRecord
100
AcDbBlockTableRecord
  2
block 24
340
0
102
{BLKREFS
331
EC
102
}
  0
BLOCK_RECORD
  5
F0
330
1
100
AcDbSymbolTableRecord
100
AcDbBlockTableRecord
  2
block 25
340
0
102
{BLKREFS
331
F1
102
}
  0
BLOCK_RECORD
  5
F8
330
1
100
AcDbSymbolTableRecord
100
AcDbBlockTableRecord
  2
block 26
340
0
102
{BLKREFS
331
F9
102
}
  0
BLOCK_RECORD
  5
12F
330
1
100
AcDbSymbolTableRecord
100
AcDbBlockTableRecord
  2
block 27
340
0
102
{BLKREFS
331
130
102
}
  0
BLOCK_RECORD
  5
134
330
1
100
AcDbSymbolTableRecord
100
AcDbBlockTableRecord
  2
block 28
340
0
102
{BLKREFS
331
135
102
}
  0
BLOCK_RECORD
  5
13C
330
1
100
AcDbSymbolTableRecord
100
AcDbBlockTableRecord
  2
block 29
340
0
102
{BLKREFS
331
13D
102
}
  0
BLOCK_RECORD
  5
141
330
1
100
AcDbSymbolTableRecord
100
AcDbBlockTableRecord
  2
block 30
340
0
102
{BLKREFS
331
142
102
}
  0
ENDTAB
  0
ENDSEC
  0
SECTION
  2
BLOCKS
  0
BLOCK
  5
20
330
1F
100
AcDbEntity
  8
0
100
AcDbBlockBegin
  2
*Model_Space
 70
     0
 71
     0
 10
0.0
 20
0.0
 30
0.0
  3
*Model_Space
  1

  0
ENDBLK
  5
21
330
1F
100
AcDbEntity
  8
0
100
AcDbBlockEnd
  0
BLOCK
  5
1C
330
1B
100
AcDbEntity
 67
     1
  8
0
100
AcDbBlockBegin
  2
*Paper_Space
 70
     0
 71
     0
 10
0.0
 20
0.0
 30
0.0
  3
*Paper_Space
  1

  0
ENDBLK
  5
1D
330
1B
100
AcDbEntity
 67
     1
  8
0
100
AcDbBlockEnd
  0
BLOCK
  5
24
330
23
100
AcDbEntity
  8
0
100
AcDbBlockBegin
  2
*Paper_Space0
 70
     0
 71
     0
 10
0.0
 20
0.0
 30
0.0
  3
*Paper_Space0
  1

  0
ENDBLK
  5
25
330
23
100
AcDbEntity
  8
0
100
AcDbBlockEnd
  0
BLOCK
  5
3E
330
3C
100
AcDbEntity
  8
0
100
AcDbBlockBegin
  2
block 2
 70
     0
 71
     0
 10
0.0
 20
0.0
 30
0.0
  3
block 2
  1

  0
SPLINE
  5
40
330
3C
100
AcDbEntity
  8
Ebene 1
 62
    22
420
 12786971
370
    25
100
AcDbSpline
210
0.0
220
0.0
230
1.0
 70
    11
 71
     3
 72
    20
 73
    16
 74
     0
 42
0.0000000001
 43
0.0000000001
 40
0.0
 40
0.0
 40
0.0
 40
0.0
 40
1.0
 40
1.0
 40
1.0
 40
2.0
 40
2.0
 40
2.0
 40
3.0
 40
3.0
 40
3.0
 40
4.0
 40
4.0
 40
4.0
 40
5.0
 40
5.0
 40
5.0
 40
5.0
 10
227.4514051080677
 20
-123.0946397261708
 30
0.0
 10
227.4514051080677
 20
-96.03272567043626
 30
0.0
 10
205.5133815675453
 20
-74.09470212991383
 30
0.0
 10
178.4514675118108
 20
-74.09470212991383
 30
0.0
 10
151.3892089465277
 20
-74.09470212991383
 30
0.0
 10
129.4511854060053
 20
-96.03272567043626
 30
0.0
 10
129.4511854060053
 20
-123.0946397261708
 30
0.0
 10
129.4511854060053
 20
-150.1565537819053
 30
0.0
 10
151.3892089465277
 20
-172.0945773224277
 30
0.0
 10
178.4514675118108
 20
-172.0945773224277
 30
0.0
 10
205.5133815675453
 20
-172.0945773224277
 30
0.0
 10
227.4514051080677
 20
-150.1565537819053
 30
0.0
 10
227.4514051080677
 20
-123.0946397261708
 30
0.0
 10
227.4514051080677
 20
-123.0946397261708
 30
0.0
 10
227.4514051080677
 20
-123.0946397261708
 30
0.0
 10
227.4514051080677
 20
-123.0946397261708
 30
0.0
  0
ENDBLK
  5
3F
330
3C
100
AcDbEntity
  8
0
100
AcDbBlockEnd
  0
BLOCK
  5
43
330
41
100
AcDbEntity
  8
0
100
AcDbBlockBegin
  2
block 3
 70
     0
 71
     0
 10
0.0
 20
0.0
 30
0.0
  3
block 3
  1

  0
SPLINE
  5
45
330
41
100
AcDbEntity
  8
Ebene 1
 62
    22
420
 12786971
370
    25
100
AcDbSpline
210
0.0
220
0.0
230
1.0
 70
    11
 71
     3
 72
    20
 73
    16
 74
     0
 42
0.0000000001
 43
0.0000000001
 40
0.0
 40
0.0
 40
0.0
 40
0.0
 40
1.0
 40
1.0
 40
1.0
 40
2.0
 40
2.0
 40
2.0
 40
3.0
 40
3.0
 40
3.0
 40
4.0
 40
4.0
 40
4.0
 40
5.0
 40
5.0
 40
5.0
 40
5.0
 10
201.4512694808872
 20
-208.094791614643
 30
0.0
 10
201.4512694808872
 20
-199.5344183528942
 30
0.0
 10
194.5118136449484
 20
-192.5946180074069
 30
0.0
 10
185.9514403831996
 20
-192.5946180074069
 30
0.0
 10
177.3907226119023
 20
-192.5946180074069
 30
0.0
 10
170.4512667759636
 20
-199.5344183528942
 30
0.0
 10
170.4512667759636
 20
-208.094791614643
 30
0.0
 10
170.4512667759636
 20
-216.6551648763918
 30
0.0
 10
177.3907226119023
 20
-223.5946207123305
 30
0.0
 10
185.9514403831996
 20
-223.5946207123305
 30
0.0
 10
194.5118136449484
 20
-223.5946207123305
 30
0.0
 10
201.4512694808872
 20
-216.6551648763918
 30
0.0
 10
201.4512694808872
 20
-208.094791614643
 30
0.0
 10
201.4512694808872
 20
-208.094791614643
 30
0.0
 10
201.4512694808872
 20
-208.094791614643
 30
0.0
 10
201.4512694808872
 20
-208.094791614643
 30
0.0
  0
ENDBLK
  5
44
330
41
100
AcDbEntity
  8
0
100
AcDbBlockEnd
  0
BLOCK
  5
48
330
46
100
AcDbEntity
  8
0
100
AcDbBlockBegin
  2
block 4
 70
     0
 71
     0
 10
0.0
 20
0.0
 30
0.0
  3
block 4
  1

  0
SPLINE
  5
4A
330
46
100
AcDbEntity
  8
Ebene 1
 62
    22
420
 12786971
370
    25
100
AcDbSpline
210
0.0
220
0.0
230
1.0
 70
     8
 71
     3
 72
    11
 73
     7
 74
     0
 42
0.0000000001
 43
0.0000000001
 40
0.0
 40
0.0
 40
0.0
 40
0.0
 40
1.0
 40
1.0
 40
1.0
 40
2.0
 40
2.0
 40
2.0
 40
2.0
 10
166.8738796240802
 20
-224.2516004213677
 30
0.0
 10
175.7970214404258
 20
-234.7877359439073
 30
0.0
 10
191.5721136673848
 20
-236.0954941901081
 30
0.0
 10
202.1082491899243
 20
-227.172007864214
 30
0.0
 10
205.8096597792768
 20
-224.0373154821851
 30
0.0
 10
208.5192273784258
 20
-219.8935546325266
 30
0.0
 10
209.9069118398844
 20
-215.2457763133761
 30
0.0
  0
ENDBLK
  5
49
330
46
100
AcDbEntity
  8
0
100
AcDbBlockEnd
  0
BLOCK
  5
4D
330
4B
100
AcDbEntity
  8
0
100
AcDbBlockBegin
  2
block 5
 70
     0
 71
     0
 10
0.0
 20
0.0
 30
0.0
  3
block 5
  1

  0
POLYLINE
  5
4F
330
4B
100
AcDbEntity
  8
Ebene 1
 62
    22
420
 12786971
370
    25
100
AcDb2dPolyline
 66
     1
 10
0.0
 20
0.0
 30
0.0
  0
VERTEX
  5
50
330
4F
100
AcDbEntity
  8
Ebene 1
 62
    22
420
 12786971
370
    25
100
AcDbVertex
100
AcDb2dVertex
 10
209.9069118398844
 20
-215.2457763133761
 30
0.0
  0
VERTEX
  5
51
330
4F
100
AcDbEntity
  8
Ebene 1
 62
    22
420
 12786971
370
    25
100
AcDbVertex
100
AcDb2dVertex
 10
232.5904540434149
 20
-139.2559271570263
 30
0.0
  0
SEQEND
  5
52
330
4F
100
AcDbEntity
  8
Ebene 1
370
    25
  0
ENDBLK
  5
4E
330
4B
100
AcDbEntity
  8
0
100
AcDbBlockEnd
  0
BLOCK
  5
55
330
53
100
AcDbEntity
  8
0
100
AcDbBlockBegin
  2
block 6
 70
     0
 71
     0
 10
0.0
 20
0.0
 30
0.0
  3
block 6
  1

  0
SPLINE
  5
57
330
53
100
AcDbEntity
  8
Ebene 1
 62
    22
420
 12786971
370
    25
100
AcDbSpline
210
0.0
220
0.0
230
1.0
 70
     8
 71
     3
 72
    11
 73
     7
 74
     0
 42
0.0000000001
 43
0.0000000001
 40
0.0
 40
0.0
 40
0.0
 40
0.0
 40
1.0
 40
1.0
 40
1.0
 40
2.0
 40
2.0
 40
2.0
 40
2.0
 10
103.5983276108192
 20
-110.2954209793706
 30
0.0
 10
95.14888642369542
 20
-110.2141167259187
 30
0.0
 10
88.23320174660489
 20
-116.9980265006984
 30
0.0
 10
88.15206974792727
 20
-125.4476399425964
 30
0.0
 10
88.08626842415899
 20
-132.2804700732667
 30
0.0
 10
92.55955265698164
 20
-138.328507452397
 30
0.0
 10
99.11212426992684
 20
-140.2663736628501
 30
0.0
  0
ENDBLK
  5
56
330
53
100
AcDbEntity
  8
0
100
AcDbBlockEnd
  0
BLOCK
  5
5A
330
58
100
AcDbEntity
  8
0
100
AcDbBlockBegin
  2
block 7
 70
     0
 71
     0
 10
0.0
 20
0.0
 30
0.0
  3
block 7
  1

  0
SPLINE
  5
5C
330
58
100
AcDbEntity
  8
Ebene 1
 62
    22
420
 12786971
370
    25
100
AcDbSpline
210
0.0
220
0.0
230
1.0
 70
    11
 71
     3
 72
    20
 73
    16
 74
     0
 42
0.0000000001
 43
0.0000000001
 40
0.0
 40
0.0
 40
0.0
 40
0.0
 40
1.0
 40
1.0
 40
1.0
 40
2.0
 40
2.0
 40
2.0
 40
3.0
 40
3.0
 40
3.0
 40
4.0
 40
4.0
 40
4.0
 40
5.0
 40
5.0
 40
5.0
 40
5.0
 10
106.701497369158
 20
-125.5947455198166
 30
0.0
 10
106.701497369158
 20
-123.7996785172272
 30
0.0
 10
105.2462890361884
 20
-122.3446424390319
 30
0.0
 10
103.4513942883733
 20
-122.3446424390319
 30
0.0
 10
101.6563272857838
 20
-122.3446424390319
 30
0.0
 10
100.2012912075886
 20
-123.7996785172272
 30
0.0
 10
100.2012912075886
 20
-125.5947455198166
 30
0.0
 10
100.2012912075886
 20
-127.3896402676318
 30
0.0
 10
101.6563272857838
 20
-128.844676345827
 30
0.0
 10
103.4513942883733
 20
-128.844676345827
 30
0.0
 10
105.2462890361884
 20
-128.844676345827
 30
0.0
 10
106.701497369158
 20
-127.3896402676318
 30
0.0
 10
106.701497369158
 20
-125.5947455198166
 30
0.0
 10
106.701497369158
 20
-125.5947455198166
 30
0.0
 10
106.701497369158
 20
-125.5947455198166
 30
0.0
 10
106.701497369158
 20
-125.5947455198166
 30
0.0
  0
ENDBLK
  5
5B
330
58
100
AcDbEntity
  8
0
100
AcDbBlockEnd
  0
BLOCK
  5
5F
330
5D
100
AcDbEntity
  8
0
100
AcDbBlockBegin
  2
block 8
 70
     0
 71
     0
 10
0.0
 20
0.0
 30
0.0
  3
block 8
  1

  0
POLYLINE
  5
61
330
5D
100
AcDbEntity
  8
Ebene 1
 62
    22
420
 12786971
370
    25
100
AcDb2dPolyline
 66
     1
 10
0.0
 20
0.0
 30
0.0
  0
VERTEX
  5
62
330
61
100
AcDbEntity
  8
Ebene 1
 62
    22
420
 12786971
370
    25
100
AcDbVertex
100
AcDb2dVertex
 10
133.4512857739288
 20
-188.0946342845736
 30
0.0
  0
VERTEX
  5
63
330
61
100
AcDbEntity
  8
Ebene 1
 62
    22
420
 12786971
370
    25
100
AcDbVertex
100
AcDb2dVertex
 10
166.8814588341477
 20
-224.2450547399457
 30
0.0
  0
SEQEND
  5
64
330
61
100
AcDbEntity
  8
Ebene 1
370
    25
  0
ENDBLK
  5
60
330
5D
100
AcDbEntity
  8
0
100
AcDbBlockEnd
  0
BLOCK
  5
67
330
65
100
AcDbEntity
  8
0
100
AcDbBlockBegin
  2
block 9
 70
     0
 71
     0
 10
0.0
 20
0.0
 30
0.0
  3
block 9
  1

  0
POLYLINE
  5
69
330
65
100
AcDbEntity
  8
Ebene 1
 62
    22
420
 12786971
370
    25
100
AcDb2dPolyline
 66
     1
 10
0.0
 20
0.0
 30
0.0
  0
VERTEX
  5
6A
330
69
100
AcDbEntity
  8
Ebene 1
 62
    22
420
 12786971
370
    25
100
AcDbVertex
100
AcDb2dVertex
 10
99.10781790057027
 20
-140.2811875734367
 30
0.0
  0
VERTEX
  5
6B
330
69
100
AcDbEntity
  8
Ebene 1
 62
    22
420
 12786971
370
    25
100
AcDbVertex
100
AcDb2dVertex
 10
100.2124877679156
 20
-140.5538668810942
 30
0.0
  0
VERTEX
  5
6C
330
69
100
AcDbEntity
  8
Ebene 1
 62
    22
420
 12786971
370
    25
100
AcDbVertex
100
AcDb2dVertex
 10
101.3047552915141
 20
-140.8296467746884
 30
0.0
  0
VERTEX
  5
6D
330
69
100
AcDbEntity
  8
Ebene 1
 62
    22
420
 12786971
370
    25
100
AcDbVertex
100
AcDb2dVertex
 10
102.372390382393
 20
-141.1118000949304
 30
0.0
  0
VERTEX
  5
6E
330
69
100
AcDbEntity
  8
Ebene 1
 62
    22
420
 12786971
370
    25
100
AcDbVertex
100
AcDb2dVertex
 10
103.402646187257
 20
-141.4030829182083
 30
0.0
  0
VERTEX
  5
6F
330
69
100
AcDbEntity
  8
Ebene 1
 62
    22
420
 12786971
370
    25
100
AcDbVertex
100
AcDb2dVertex
 10
104.3834648719076
 20
-141.706768085233
 30
0.0
  0
VERTEX
  5
70
330
69
100
AcDbEntity
  8
Ebene 1
 62
    22
420
 12786971
370
    25
100
AcDbVertex
100
AcDb2dVertex
 10
105.3022718378237
 20
-142.0257839271672
 30
0.0
  0
VERTEX
  5
71
330
69
100
AcDbEntity
  8
Ebene 1
 62
    22
420
 12786971
370
    25
100
AcDbVertex
100
AcDb2dVertex
 10
106.1468369960327
 20
-142.3635755394959
 30
0.0
  0
VERTEX
  5
72
330
69
100
AcDbEntity
  8
Ebene 1
 62
    22
420
 12786971
370
    25
100
AcDbVertex
100
AcDb2dVertex
 10
106.9044134932392
 20
-142.7228989986075
 30
0.0
  0
VERTEX
  5
73
330
69
100
AcDbEntity
  8
Ebene 1
 62
    22
420
 12786971
370
    25
100
AcDbVertex
100
AcDb2dVertex
 10
107.5662163359557
 20
-143.1053045974702
 30
0.0
  0
VERTEX
  5
74
330
69
100
AcDbEntity
  8
Ebene 1
 62
    22
420
 12786971
370
    25
100
AcDbVertex
100
AcDb2dVertex
 10
108.1370686578616
 20
-143.5056246928562
 30
0.0
  0
VERTEX
  5
75
330
69
100
AcDbEntity
  8
Ebene 1
 62
    22
420
 12786971
370
    25
100
AcDbVertex
100
AcDb2dVertex
 10
108.6245496690244
 20
-143.9171413485693
 30
0.0
  0
VERTEX
  5
76
330
69
100
AcDbEntity
  8
Ebene 1
 62
    22
420
 12786971
370
    25
100
AcDbVertex
100
AcDb2dVertex
 10
109.0372721081574
 20
-144.3326198640905
 30
0.0
  0
VERTEX
  5
77
330
69
100
AcDbEntity
  8
Ebene 1
 62
    22
420
 12786971
370
    25
100
AcDbVertex
100
AcDb2dVertex
 10
109.3831596948764
 20
-144.7455145579977
 30
0.0
  0
VERTEX
  5
78
330
69
100
AcDbEntity
  8
Ebene 1
 62
    22
420
 12786971
370
    25
100
AcDbVertex
100
AcDb2dVertex
 10
109.6697916392492
 20
-145.1487629845462
 30
0.0
  0
VERTEX
  5
79
330
69
100
AcDbEntity
  8
Ebene 1
 62
    22
420
 12786971
370
    25
100
AcDbVertex
100
AcDb2dVertex
 10
109.9054361704403
 20
-145.535819462314
 30
0.0
  0
VERTEX
  5
7A
330
69
100
AcDbEntity
  8
Ebene 1
 62
    22
420
 12786971
370
    25
100
AcDbVertex
100
AcDb2dVertex
 10
110.0983615176143
 20
-145.8996215455564
 30
0.0
  0
VERTEX
  5
7B
330
69
100
AcDbEntity
  8
Ebene 1
 62
    22
420
 12786971
370
    25
100
AcDbVertex
100
AcDb2dVertex
 10
110.2561468908387
 20
-146.2387911960792
 30
0.0
  0
VERTEX
  5
7C
330
69
100
AcDbEntity
  8
Ebene 1
 62
    22
420
 12786971
370
    25
100
AcDbVertex
100
AcDb2dVertex
 10
110.3870605192782
 20
-146.5738267320197
 30
0.0
  0
VERTEX
  5
7D
330
69
100
AcDbEntity
  8
Ebene 1
 62
    22
420
 12786971
370
    25
100
AcDbVertex
100
AcDb2dVertex
 10
110.5000596511944
 20
-146.9309108790659
 30
0.0
  0
VERTEX
  5
7E
330
69
100
AcDbEntity
  8
Ebene 1
 62
    22
420
 12786971
370
    25
100
AcDbVertex
100
AcDb2dVertex
 10
110.6020344775578
 20
-147.3360541081313
 30
0.0
  0
VERTEX
  5
7F
330
69
100
AcDbEntity
  8
Ebene 1
 62
    22
420
 12786971
370
    25
100
AcDbVertex
100
AcDb2dVertex
 10
110.7022867561786
 20
-147.8150946353553
 30
0.0
  0
VERTEX
  5
80
330
69
100
AcDbEntity
  8
Ebene 1
 62
    22
420
 12786971
370
    25
100
AcDbVertex
100
AcDb2dVertex
 10
110.8087402066728
 20
-148.3943874412
 30
0.0
  0
VERTEX
  5
81
330
69
100
AcDbEntity
  8
Ebene 1
 62
    22
420
 12786971
370
    25
100
AcDbVertex
100
AcDb2dVertex
 10
110.9286295295595
 20
-149.0999429965792
 30
0.0
  0
VERTEX
  5
82
330
69
100
AcDbEntity
  8
Ebene 1
 62
    22
420
 12786971
370
    25
100
AcDbVertex
100
AcDb2dVertex
 10
111.0716009921974
 20
-149.9574272628579
 30
0.0
  0
VERTEX
  5
83
330
69
100
AcDbEntity
  8
Ebene 1
 62
    22
420
 12786971
370
    25
100
AcDbVertex
100
AcDb2dVertex
 10
111.2445447855569
 20
-150.9854437556564
 30
0.0
  0
VERTEX
  5
84
330
69
100
AcDbEntity
  8
Ebene 1
 62
    22
420
 12786971
370
    25
100
AcDbVertex
100
AcDb2dVertex
 10
111.4543511006086
 20
-152.1698675834853
 30
0.0
  0
VERTEX
  5
85
330
69
100
AcDbEntity
  8
Ebene 1
 62
    22
420
 12786971
370
    25
100
AcDbVertex
100
AcDb2dVertex
 10
111.707221109226
 20
-153.4896836638845
 30
0.0
  0
VERTEX
  5
86
330
69
100
AcDbEntity
  8
Ebene 1
 62
    22
420
 12786971
370
    25
100
AcDbVertex
100
AcDb2dVertex
 10
112.0090114737339
 20
-154.9224988761999
 30
0.0
  0
VERTEX
  5
87
330
69
100
AcDbEntity
  8
Ebene 1
 62
    22
420
 12786971
370
    25
100
AcDbVertex
100
AcDb2dVertex
 10
112.3662678755543
 20
-156.4472981379715
 30
0.0
  0
VERTEX
  5
88
330
69
100
AcDbEntity
  8
Ebene 1
 62
    22
420
 12786971
370
    25
100
AcDbVertex
100
AcDb2dVertex
 10
112.7848469770121
 20
-158.0420328380937
 30
0.0
  0
VERTEX
  5
89
330
69
100
AcDbEntity
  8
Ebene 1
 62
    22
420
 12786971
370
    25
100
AcDbVertex
100
AcDb2dVertex
 10
113.2716389690779
 20
-159.6853433845578
 30
0.0
  0
VERTEX
  5
8A
330
69
100
AcDbEntity
  8
Ebene 1
 62
    22
420
 12786971
370
    25
100
AcDbVertex
100
AcDb2dVertex
 10
113.8321560045281
 20
-161.355525675807
 30
0.0
  0
VERTEX
  5
8B
330
69
100
AcDbEntity
  8
Ebene 1
 62
    22
420
 12786971
370
    25
100
AcDbVertex
100
AcDb2dVertex
 10
114.4722547456875
 20
-163.0343207057692
 30
0.0
  0
VERTEX
  5
8C
330
69
100
AcDbEntity
  8
Ebene 1
 62
    22
420
 12786971
370
    25
100
AcDbVertex
100
AcDb2dVertex
 10
115.1936577402988
 20
-164.7169053407652
 30
0.0
  0
VERTEX
  5
8D
330
69
100
AcDbEntity
  8
Ebene 1
 62
    22
420
 12786971
370
    25
100
AcDbVertex
100
AcDb2dVertex
 10
115.9973985170076
 20
-166.4022460521495
 30
0.0
  0
VERTEX
  5
8E
330
69
100
AcDbEntity
  8
Ebene 1
 62
    22
420
 12786971
370
    25
100
AcDbVertex
100
AcDb2dVertex
 10
116.8851996235565
 20
-168.0886202921792
 30
0.0
  0
VERTEX
  5
8F
330
69
100
AcDbEntity
  8
Ebene 1
 62
    22
420
 12786971
370
    25
100
AcDbVertex
100
AcDb2dVertex
 10
117.858094588591
 20
-169.774994532209
 30
0.0
  0
VERTEX
  5
90
330
69
100
AcDbEntity
  8
Ebene 1
 62
    22
420
 12786971
370
    25
100
AcDbVertex
100
AcDb2dVertex
 10
118.9171169407568
 20
-171.4596462244962
 30
0.0
  0
VERTEX
  5
91
330
69
100
AcDbEntity
  8
Ebene 1
 62
    22
420
 12786971
370
    25
100
AcDbVertex
100
AcDb2dVertex
 10
120.0633002086995
 20
-173.1411973308467
 30
0.0
  0
VERTEX
  5
92
330
69
100
AcDbEntity
  8
Ebene 1
 62
    22
420
 12786971
370
    25
100
AcDbVertex
100
AcDb2dVertex
 10
121.2983669401615
 20
-174.8186143226148
 30
0.0
  0
VERTEX
  5
93
330
69
100
AcDbEntity
  8
Ebene 1
 62
    22
420
 12786971
370
    25
100
AcDbVertex
100
AcDb2dVertex
 10
122.6209390969489
 20
-176.4905191616066
 30
0.0
  0
VERTEX
  5
94
330
69
100
AcDbEntity
  8
Ebene 1
 62
    22
420
 12786971
370
    25
100
AcDbVertex
100
AcDb2dVertex
 10
124.0220594308
 20
-178.157600866919
 30
0.0
  0
VERTEX
  5
95
330
69
100
AcDbEntity
  8
Ebene 1
 62
    22
420
 12786971
370
    25
100
AcDbVertex
100
AcDb2dVertex
 10
125.4907036361621
 20
-179.8202039481005
 30
0.0
  0
VERTEX
  5
96
330
69
100
AcDbEntity
  8
Ebene 1
 62
    22
420
 12786971
370
    25
100
AcDbVertex
100
AcDb2dVertex
 10
127.0155028979336
 20
-181.4793619337968
 30
0.0
  0
VERTEX
  5
97
330
69
100
AcDbEntity
  8
Ebene 1
 62
    22
420
 12786971
370
    25
100
AcDbVertex
100
AcDb2dVertex
 10
128.5850884010135
 20
-183.135763843105
 30
0.0
  0
VERTEX
  5
98
330
69
100
AcDbEntity
  8
Ebene 1
 62
    22
420
 12786971
370
    25
100
AcDbVertex
100
AcDb2dVertex
 10
130.1884358398487
 20
-184.7897541855734
 30
0.0
  0
VERTEX
  5
99
330
69
100
AcDbEntity
  8
Ebene 1
 62
    22
420
 12786971
370
    25
100
AcDbVertex
100
AcDb2dVertex
 10
131.8141763993381
 20
-186.4427109993963
 30
0.0
  0
VERTEX
  5
9A
330
69
100
AcDbEntity
  8
Ebene 1
 62
    22
420
 12786971
370
    25
100
AcDbVertex
100
AcDb2dVertex
 10
133.4512857739288
 20
-188.0946342845736
 30
0.0
  0
SEQEND
  5
9B
330
69
100
AcDbEntity
  8
Ebene 1
370
    25
  0
ENDBLK
  5
68
330
65
100
AcDbEntity
  8
0
100
AcDbBlockEnd
  0
BLOCK
  5
9E
330
9C
100
AcDbEntity
  8
0
100
AcDbBlockBegin
  2
block 10
 70
     0
 71
     0
 10
0.0
 20
0.0
 30
0.0
  3
block 10
  1

  0
POLYLINE
  5
A0
330
9C
100
AcDbEntity
  8
Ebene 1
 62
    22
420
 12786971
370
    25
100
AcDb2dPolyline
 66
     1
 10
0.0
 20
0.0
 30
0.0
  0
VERTEX
  5
A1
330
A0
100
AcDbEntity
  8
Ebene 1
 62
    22
420
 12786971
370
    25
100
AcDbVertex
100
AcDb2dVertex
 10
109.6914957408063
 20
-110.3202256668644
 30
0.0
  0
VERTEX
  5
A2
330
A0
100
AcDbEntity
  8
Ebene 1
 62
    22
420
 12786971
370
    25
100
AcDbVertex
100
AcDb2dVertex
 10
103.5983276108192
 20
-110.2954209793706
 30
0.0
  0
SEQEND
  5
A3
330
A0
100
AcDbEntity
  8
Ebene 1
370
    25
  0
ENDBLK
  5
9F
330
9C
100
AcDbEntity
  8
0
100
AcDbBlockEnd
  0
BLOCK
  5
A6
330
A4
100
AcDbEntity
  8
0
100
AcDbBlockBegin
  2
block 11
 70
     0
 71
     0
 10
0.0
 20
0.0
 30
0.0
  3
block 11
  1

  0
SPLINE
  5
A8
330
A4
100
AcDbEntity
  8
Ebene 1
 62
    22
420
 12786971
370
    25
100
AcDbSpline
210
0.0
220
0.0
230
1.0
 70
    11
 71
     3
 72
    20
 73
    16
 74
     0
 42
0.0000000001
 43
0.0000000001
 40
0.0
 40
0.0
 40
0.0
 40
0.0
 40
1.0
 40
1.0
 40
1.0
 40
2.0
 40
2.0
 40
2.0
 40
3.0
 40
3.0
 40
3.0
 40
4.0
 40
4.0
 40
4.0
 40
5.0
 40
5.0
 40
5.0
 40
5.0
 10
148.9514593811649
 20
-181.0945447680944
 30
0.0
 10
148.9514593811649
 20
-178.0570040787497
 30
0.0
 10
146.4889051283083
 20
-175.5947943354416
 30
0.0
 10
143.4513644389636
 20
-175.5947943354416
 30
0.0
 10
140.4138237496188
 20
-175.5947943354416
 30
0.0
 10
137.9512694967622
 20
-178.0570040787497
 30
0.0
 10
137.9512694967622
 20
-181.0945447680944
 30
0.0
 10
137.9512694967622
 20
-184.1320854574392
 30
0.0
 10
140.4138237496188
 20
-186.5946397102958
 30
0.0
 10
143.4513644389636
 20
-186.5946397102958
 30
0.0
 10
146.4889051283083
 20
-186.5946397102958
 30
0.0
 10
148.9514593811649
 20
-184.1320854574392
 30
0.0
 10
148.9514593811649
 20
-181.0945447680944
 30
0.0
 10
148.9514593811649
 20
-181.0945447680944
 30
0.0
 10
148.9514593811649
 20
-181.0945447680944
 30
0.0
 10
148.9514593811649
 20
-181.0945447680944
 30
0.0
  0
ENDBLK
  5
A7
330
A4
100
AcDbEntity
  8
0
100
AcDbBlockEnd
  0
BLOCK
  5
AB
330
A9
100
AcDbEntity
  8
0
100
AcDbBlockBegin
  2
block 12
 70
     0
 71
     0
 10
0.0
 20
0.0
 30
0.0
  3
block 12
  1

  0
SPLINE
  5
AD
330
A9
100
AcDbEntity
  8
Ebene 1
 62
    22
420
 12786971
370
    25
100
AcDbSpline
210
0.0
220
0.0
230
1.0
 70
    11
 71
     3
 72
    20
 73
    16
 74
     0
 42
0.0000000001
 43
0.0000000001
 40
0.0
 40
0.0
 40
0.0
 40
0.0
 40
1.0
 40
1.0
 40
1.0
 40
2.0
 40
2.0
 40
2.0
 40
3.0
 40
3.0
 40
3.0
 40
4.0
 40
4.0
 40
4.0
 40
5.0
 40
5.0
 40
5.0
 40
5.0
 10
133.2011718416997
 20
-165.0944878059486
 30
0.0
 10
133.2011718416997
 20
-162.4713921034794
 30
0.0
 10
131.074514398655
 20
-160.3447346604347
 30
0.0
 10
128.4514186961858
 20
-160.3447346604347
 30
0.0
 10
125.827978484168
 20
-160.3447346604347
 30
0.0
 10
123.7013210411233
 20
-162.4713921034794
 30
0.0
 10
123.7013210411233
 20
-165.0944878059486
 30
0.0
 10
123.7013210411233
 20
-167.7179280179664
 30
0.0
 10
125.827978484168
 20
-169.8445854610111
 30
0.0
 10
128.4514186961858
 20
-169.8445854610111
 30
0.0
 10
131.074514398655
 20
-169.8445854610111
 30
0.0
 10
133.2011718416997
 20
-167.7179280179664
 30
0.0
 10
133.2011718416997
 20
-165.0944878059486
 30
0.0
 10
133.2011718416997
 20
-165.0944878059486
 30
0.0
 10
133.2011718416997
 20
-165.0944878059486
 30
0.0
 10
133.2011718416997
 20
-165.0944878059486
 30
0.0
  0
ENDBLK
  5
AC
330
A9
100
AcDbEntity
  8
0
100
AcDbBlockEnd
  0
BLOCK
  5
B0
330
AE
100
AcDbEntity
  8
0
100
AcDbBlockBegin
  2
block 13
 70
     0
 71
     0
 10
0.0
 20
0.0
 30
0.0
  3
block 13
  1

  0
SPLINE
  5
B2
330
AE
100
AcDbEntity
  8
Ebene 1
 62
    22
420
 12786971
370
    25
100
AcDbSpline
210
0.0
220
0.0
230
1.0
 70
     8
 71
     3
 72
    11
 73
     7
 74
     0
 42
0.0000000001
 43
0.0000000001
 40
0.0
 40
0.0
 40
0.0
 40
0.0
 40
1.0
 40
1.0
 40
1.0
 40
2.0
 40
2.0
 40
2.0
 40
2.0
 10
105.2251016989541
 20
-141.9990844371565
 30
0.0
 10
114.2848415512899
 20
-141.0194715359257
 30
0.0
 10
120.8353461069439
 20
-132.8807779615715
 30
0.0
 10
119.8555609509389
 20
-123.8208658544615
 30
0.0
 10
119.2040933946782
 20
-117.7953938507595
 30
0.0
 10
115.3018337385357
 20
-112.6122476932011
 30
0.0
 10
109.6914957408063
 20
-110.3202256668644
 30
0.0
  0
ENDBLK
  5
B1
330
AE
100
AcDbEntity
  8
0
100
AcDbBlockEnd
  0
BLOCK
  5
B5
330
B3
100
AcDbEntity
  8
0
100
AcDbBlockBegin
  2
block 14
 70
     0
 71
     0
 10
0.0
 20
0.0
 30
0.0
  3
block 14
  1

  0
SPLINE
  5
B7
330
B3
100
AcDbEntity
  8
Ebene 1
 62
    22
420
 12786971
370
    25
100
AcDbSpline
210
0.0
220
0.0
230
1.0
 70
     8
 71
     3
 72
     8
 73
     4
 74
     0
 42
0.0000000001
 43
0.0000000001
 40
0.0
 40
0.0
 40
0.0
 40
0.0
 40
1.0
 40
1.0
 40
1.0
 40
1.0
 10
109.6914957408063
 20
-110.3202256668644
 30
0.0
 10
111.4894910745582
 20
-110.090265543224
 30
0.0
 10
113.1562282703221
 20
-109.2563801810192
 30
0.0
 10
114.4185112561176
 20
-107.9553398710146
 30
0.0
  0
ENDBLK
  5
B6
330
B3
100
AcDbEntity
  8
0
100
AcDbBlockEnd
  0
BLOCK
  5
BA
330
B8
100
AcDbEntity
  8
0
100
AcDbBlockBegin
  2
block 15
 70
     0
 71
     0
 10
0.0
 20
0.0
 30
0.0
  3
block 15
  1

  0
POLYLINE
  5
BC
330
B8
100
AcDbEntity
  8
Ebene 1
 62
    22
420
 12786971
370
    25
100
AcDb2dPolyline
 66
     1
 10
0.0
 20
0.0
 30
0.0
  0
VERTEX
  5
BD
330
BC
100
AcDbEntity
  8
Ebene 1
 62
    22
420
 12786971
370
    25
100
AcDbVertex
100
AcDb2dVertex
 10
137.8995930644834
 20
-83.7523383037147
 30
0.0
  0
VERTEX
  5
BE
330
BC
100
AcDbEntity
  8
Ebene 1
 62
    22
420
 12786971
370
    25
100
AcDbVertex
100
AcDb2dVertex
 10
114.4185112561176
 20
-107.9553398710146
 30
0.0
  0
SEQEND
  5
BF
330
BC
100
AcDbEntity
  8
Ebene 1
370
    25
  0
ENDBLK
  5
BB
330
B8
100
AcDbEntity
  8
0
100
AcDbBlockEnd
  0
BLOCK
  5
C2
330
C0
100
AcDbEntity
  8
0
100
AcDbBlockBegin
  2
block 16
 70
     0
 71
     0
 10
0.0
 20
0.0
 30
0.0
  3
block 16
  1

  0
SPLINE
  5
C4
330
C0
100
AcDbEntity
  8
Ebene 1
 62
    22
420
 12786971
370
    25
100
AcDbSpline
210
0.0
220
0.0
230
1.0
 70
     8
 71
     3
 72
    11
 73
     7
 74
     0
 42
0.0000000001
 43
0.0000000001
 40
0.0
 40
0.0
 40
0.0
 40
0.0
 40
1.0
 40
1.0
 40
1.0
 40
2.0
 40
2.0
 40
2.0
 40
2.0
 10
232.5904540434149
 20
-139.2559271570263
 30
0.0
 10
241.5163519361487
 20
-109.3555989309944
 30
0.0
 10
224.5127386591496
 20
-77.88103432297765
 30
0.0
 10
194.6124104331177
 20
-68.95530868501812
 30
0.0
 10
174.4279404945875
 20
-62.93000893609042
 30
0.0
 10
152.5674316024831
 20
-68.63370902147005
 30
0.0
 10
137.8995930644834
 20
-83.7523383037147
 30
0.0
  0
ENDBLK
  5
C3
330
C0
100
AcDbEntity
  8
0
100
AcDbBlockEnd
  0
BLOCK
  5
C7
330
C5
100
AcDbEntity
  8
0
100
AcDbBlockBegin
  2
block 17
 70
     0
 71
     0
 10
0.0
 20
0.0
 30
0.0
  3
block 17
  1

  0
SPLINE
  5
C9
330
C5
100
AcDbEntity
  8
Ebene 1
 62
    22
420
 12786971
370
    25
100
AcDbSpline
210
0.0
220
0.0
230
1.0
 70
     8
 71
     3
 72
    11
 73
     7
 74
     0
 42
0.0000000001
 43
0.0000000001
 40
0.0
 40
0.0
 40
0.0
 40
0.0
 40
1.0
 40
1.0
 40
1.0
 40
2.0
 40
2.0
 40
2.0
 40
2.0
 10
69.00285100271456
 20
-83.7523383037147
 30
0.0
 10
47.27480603201811
 20
-61.35628931842829
 30
0.0
 10
11.50506862776609
 20
-60.81489256292128
 30
0.0
 10
-10.89098035752031
 20
-82.543109788392
 30
0.0
 10
-26.00978189453922
 20
-97.21094832639172
 30
0.0
 10
-31.71330972514459
 20
-119.0712849637218
 30
0.0
 10
-25.68800997621689
 20
-139.2559271570263
 30
0.0
  0
ENDBLK
  5
C8
330
C5
100
AcDbEntity
  8
0
100
AcDbBlockEnd
  0
BLOCK
  5
CC
330
CA
100
AcDbEntity
  8
0
100
AcDbBlockBegin
  2
block 18
 70
     0
 71
     0
 10
0.0
 20
0.0
 30
0.0
  3
block 18
  1

  0
SPLINE
  5
CE
330
CA
100
AcDbEntity
  8
Ebene 1
 62
    22
420
 12786971
370
    25
100
AcDbSpline
210
0.0
220
0.0
230
1.0
 70
     8
 71
     3
 72
    11
 73
     7
 74
     0
 42
0.0000000001
 43
0.0000000001
 40
0.0
 40
0.0
 40
0.0
 40
0.0
 40
1.0
 40
1.0
 40
1.0
 40
2.0
 40
2.0
 40
2.0
 40
2.0
 10
97.21112058116597
 20
-110.3202256668644
 30
0.0
 10
88.77528752120897
 20
-113.7665269355341
 30
0.0
 10
84.73040091197713
 20
-123.3990139122926
 30
0.0
 10
88.17687443542107
 20
-131.8348469722496
 30
0.0
 10
90.46889646175778
 20
-137.445184969979
 30
0.0
 10
95.65204261931616
 20
-141.3474446261215
 30
0.0
 10
101.6775146230181
 20
-141.9990844371565
 30
0.0
  0
ENDBLK
  5
CD
330
CA
100
AcDbEntity
  8
0
100
AcDbBlockEnd
  0
BLOCK
  5
D1
330
CF
100
AcDbEntity
  8
0
100
AcDbBlockBegin
  2
block 19
 70
     0
 71
     0
 10
0.0
 20
0.0
 30
0.0
  3
block 19
  1

  0
SPLINE
  5
D3
330
CF
100
AcDbEntity
  8
Ebene 1
 62
    22
420
 12786971
370
    25
100
AcDbSpline
210
0.0
220
0.0
230
1.0
 70
    11
 71
     3
 72
    20
 73
    16
 74
     0
 42
0.0000000001
 43
0.0000000001
 40
0.0
 40
0.0
 40
0.0
 40
0.0
 40
1.0
 40
1.0
 40
1.0
 40
2.0
 40
2.0
 40
2.0
 40
3.0
 40
3.0
 40
3.0
 40
4.0
 40
4.0
 40
4.0
 40
5.0
 40
5.0
 40
5.0
 40
5.0
 10
77.45125866119274
 20
-123.0946397261708
 30
0.0
 10
77.45125866119274
 20
-96.03272567043626
 30
0.0
 10
55.5132351206703
 20
-74.09470212991383
 30
0.0
 10
28.45132106493578
 20
-74.09470212991383
 30
0.0
 10
1.389407009201259
 20
-74.09470212991383
 30
0.0
 10
-20.54861653132118
 20
-96.03272567043626
 30
0.0
 10
-20.54861653132118
 20
-123.0946397261708
 30
0.0
 10
-20.54861653132118
 20
-150.1565537819053
 30
0.0
 10
1.389407009201259
 20
-172.0945773224277
 30
0.0
 10
28.45132106493578
 20
-172.0945773224277
 30
0.0
 10
55.5132351206703
 20
-172.0945773224277
 30
0.0
 10
77.45125866119274
 20
-150.1565537819053
 30
0.0
 10
77.45125866119274
 20
-123.0946397261708
 30
0.0
 10
77.45125866119274
 20
-123.0946397261708
 30
0.0
 10
77.45125866119274
 20
-123.0946397261708
 30
0.0
 10
77.45125866119274
 20
-123.0946397261708
 30
0.0
  0
ENDBLK
  5
D2
330
CF
100
AcDbEntity
  8
0
100
AcDbBlockEnd
  0
BLOCK
  5
D6
330
D4
100
AcDbEntity
  8
0
100
AcDbBlockBegin
  2
block 20
 70
     0
 71
     0
 10
0.0
 20
0.0
 30
0.0
  3
block 20
  1

  0
SPLINE
  5
D8
330
D4
100
AcDbEntity
  8
Ebene 1
 62
    22
420
 12786971
370
    25
100
AcDbSpline
210
0.0
220
0.0
230
1.0
 70
    11
 71
     3
 72
    20
 73
    16
 74
     0
 42
0.0000000001
 43
0.0000000001
 40
0.0
 40
0.0
 40
0.0
 40
0.0
 40
1.0
 40
1.0
 40
1.0
 40
2.0
 40
2.0
 40
2.0
 40
3.0
 40
3.0
 40
3.0
 40
4.0
 40
4.0
 40
4.0
 40
5.0
 40
5.0
 40
5.0
 40
5.0
 10
36.45134954600869
 20
-208.094791614643
 30
0.0
 10
36.45134954600869
 20
-199.5344183528942
 30
0.0
 10
29.51172145529568
 20
-192.5946180074069
 30
0.0
 10
20.95134819354688
 20
-192.5946180074069
 30
0.0
 10
12.39097493179809
 20
-192.5946180074069
 30
0.0
 10
5.45134684108508
 20
-199.5344183528942
 30
0.0
 10
5.45134684108508
 20
-208.094791614643
 30
0.0
 10
5.45134684108508
 20
-216.6551648763918
 30
0.0
 10
12.39097493179809
 20
-223.5946207123305
 30
0.0
 10
20.95134819354688
 20
-223.5946207123305
 30
0.0
 10
29.51172145529568
 20
-223.5946207123305
 30
0.0
 10
36.45134954600869
 20
-216.6551648763918
 30
0.0
 10
36.45134954600869
 20
-208.094791614643
 30
0.0
 10
36.45134954600869
 20
-208.094791614643
 30
0.0
 10
36.45134954600869
 20
-208.094791614643
 30
0.0
 10
36.45134954600869
 20
-208.094791614643
 30
0.0
  0
ENDBLK
  5
D7
330
D4
100
AcDbEntity
  8
0
100
AcDbBlockEnd
  0
BLOCK
  5
DB
330
D9
100
AcDbEntity
  8
0
100
AcDbBlockBegin
  2
block 21
 70
     0
 71
     0
 10
0.0
 20
0.0
 30
0.0
  3
block 21
  1

  0
SPLINE
  5
DD
330
D9
100
AcDbEntity
  8
Ebene 1
 62
    22
420
 12786971
370
    25
100
AcDbSpline
210
0.0
220
0.0
230
1.0
 70
     8
 71
     3
 72
    11
 73
     7
 74
     0
 42
0.0000000001
 43
0.0000000001
 40
0.0
 40
0.0
 40
0.0
 40
0.0
 40
1.0
 40
1.0
 40
1.0
 40
2.0
 40
2.0
 40
2.0
 40
2.0
 10
-3.004123263137858
 20
-215.2457763133761
 30
0.0
 10
0.9451619463782929
 20
-228.475976505381
 30
0.0
 10
14.87213270027502
 20
-235.9993760260696
 30
0.0
 10
28.10233289227997
 20
-232.0502630713277
 30
0.0
 10
32.75011121143053
 20
-230.6625786098691
 30
0.0
 10
36.8940443158633
 20
-227.9530110107201
 30
0.0
 10
40.02873669789212
 20
-224.2516004213677
 30
0.0
  0
ENDBLK
  5
DC
330
D9
100
AcDbEntity
  8
0
100
AcDbBlockEnd
  0
BLOCK
  5
E0
330
DE
100
AcDbEntity
  8
0
100
AcDbBlockBegin
  2
block 22
 70
     0
 71
     0
 10
0.0
 20
0.0
 30
0.0
  3
block 22
  1

  0
POLYLINE
  5
E2
330
DE
100
AcDbEntity
  8
Ebene 1
 62
    22
420
 12786971
370
    25
100
AcDb2dPolyline
 66
     1
 10
0.0
 20
0.0
 30
0.0
  0
VERTEX
  5
E3
330
E2
100
AcDbEntity
  8
Ebene 1
 62
    22
420
 12786971
370
    25
100
AcDbVertex
100
AcDb2dVertex
 10
-3.004123263137858
 20
-215.2457763133761
 30
0.0
  0
VERTEX
  5
E4
330
E2
100
AcDbEntity
  8
Ebene 1
 62
    22
420
 12786971
370
    25
100
AcDbVertex
100
AcDb2dVertex
 10
-25.68800997621689
 20
-139.2559271570263
 30
0.0
  0
SEQEND
  5
E5
330
E2
100
AcDbEntity
  8
Ebene 1
370
    25
  0
ENDBLK
  5
E1
330
DE
100
AcDbEntity
  8
0
100
AcDbBlockEnd
  0
BLOCK
  5
E8
330
E6
100
AcDbEntity
  8
0
100
AcDbBlockBegin
  2
block 23
 70
     0
 71
     0
 10
0.0
 20
0.0
 30
0.0
  3
block 23
  1

  0
SPLINE
  5
EA
330
E6
100
AcDbEntity
  8
Ebene 1
 62
    22
420
 12786971
370
    25
100
AcDbSpline
210
0.0
220
0.0
230
1.0
 70
     8
 71
     3
 72
    11
 73
     7
 74
     0
 42
0.0000000001
 43
0.0000000001
 40
0.0
 40
0.0
 40
0.0
 40
0.0
 40
1.0
 40
1.0
 40
1.0
 40
2.0
 40
2.0
 40
2.0
 40
2.0
 10
107.7904920520454
 20
-140.2663736628501
 30
0.0
 10
115.8933566333531
 20
-137.8699652433103
 30
0.0
 10
120.5194308509465
 20
-129.3585123374521
 30
0.0
 10
118.1230224314068
 20
-121.2554755013702
 30
0.0
 10
116.1851562209537
 20
-114.702903888425
 30
0.0
 10
110.1369465870491
 20
-110.2296196556023
 30
0.0
 10
103.3042887111531
 20
-110.2954209793706
 30
0.0
  0
ENDBLK
  5
E9
330
E6
100
AcDbEntity
  8
0
100
AcDbBlockEnd
  0
BLOCK
  5
ED
330
EB
100
AcDbEntity
  8
0
100
AcDbBlockBegin
  2
block 24
 70
     0
 71
     0
 10
0.0
 20
0.0
 30
0.0
  3
block 24
  1

  0
SPLINE
  5
EF
330
EB
100
AcDbEntity
  8
Ebene 1
 62
    22
420
 12786971
370
    25
100
AcDbSpline
210
0.0
220
0.0
230
1.0
 70
    11
 71
     3
 72
    20
 73
    16
 74
     0
 42
0.0000000001
 43
0.0000000001
 40
0.0
 40
0.0
 40
0.0
 40
0.0
 40
1.0
 40
1.0
 40
1.0
 40
2.0
 40
2.0
 40
2.0
 40
3.0
 40
3.0
 40
3.0
 40
4.0
 40
4.0
 40
4.0
 40
5.0
 40
5.0
 40
5.0
 40
5.0
 10
106.701497369158
 20
-125.5947455198166
 30
0.0
 10
106.701497369158
 20
-123.7996785172272
 30
0.0
 10
105.2462890361884
 20
-122.3446424390319
 30
0.0
 10
103.4513942883733
 20
-122.3446424390319
 30
0.0
 10
101.6563272857838
 20
-122.3446424390319
 30
0.0
 10
100.2012912075886
 20
-123.7996785172272
 30
0.0
 10
100.2012912075886
 20
-125.5947455198166
 30
0.0
 10
100.2012912075886
 20
-127.3896402676318
 30
0.0
 10
101.6563272857838
 20
-128.844676345827
 30
0.0
 10
103.4513942883733
 20
-128.844676345827
 30
0.0
 10
105.2462890361884
 20
-128.844676345827
 30
0.0
 10
106.701497369158
 20
-127.3896402676318
 30
0.0
 10
106.701497369158
 20
-125.5947455198166
 30
0.0
 10
106.701497369158
 20
-125.5947455198166
 30
0.0
 10
106.701497369158
 20
-125.5947455198166
 30
0.0
 10
106.701497369158
 20
-125.5947455198166
 30
0.0
  0
ENDBLK
  5
EE
330
EB
100
AcDbEntity
  8
0
100
AcDbBlockEnd
  0
BLOCK
  5
F2
330
F0
100
AcDbEntity
  8
0
100
AcDbBlockBegin
  2
block 25
 70
     0
 71
     0
 10
0.0
 20
0.0
 30
0.0
  3
block 25
  1

  0
POLYLINE
  5
F4
330
F0
100
AcDbEntity
  8
Ebene 1
 62
    22
420
 12786971
370
    25
100
AcDb2dPolyline
 66
     1
 10
0.0
 20
0.0
 30
0.0
  0
VERTEX
  5
F5
330
F4
100
AcDbEntity
  8
Ebene 1
 62
    22
420
 12786971
370
    25
100
AcDbVertex
100
AcDb2dVertex
 10
73.45133054804342
 20
-188.0946342845736
 30
0.0
  0
VERTEX
  5
F6
330
F4
100
AcDbEntity
  8
Ebene 1
 62
    22
420
 12786971
370
    25
100
AcDbVertex
100
AcDb2dVertex
 10
40.02115748782457
 20
-224.2450547399457
 30
0.0
  0
SEQEND
  5
F7
330
F4
100
AcDbEntity
  8
Ebene 1
370
    25
  0
ENDBLK
  5
F3
330
F0
100
AcDbEntity
  8
0
100
AcDbBlockEnd
  0
BLOCK
  5
FA
330
F8
100
AcDbEntity
  8
0
100
AcDbBlockBegin
  2
block 26
 70
     0
 71
     0
 10
0.0
 20
0.0
 30
0.0
  3
block 26
  1

  0
POLYLINE
  5
FC
330
F8
100
AcDbEntity
  8
Ebene 1
 62
    22
420
 12786971
370
    25
100
AcDb2dPolyline
 66
     1
 10
0.0
 20
0.0
 30
0.0
  0
VERTEX
  5
FD
330
FC
100
AcDbEntity
  8
Ebene 1
 62
    22
420
 12786971
370
    25
100
AcDbVertex
100
AcDb2dVertex
 10
107.7949706761763
 20
-140.2811875734367
 30
0.0
  0
VERTEX
  5
FE
330
FC
100
AcDbEntity
  8
Ebene 1
 62
    22
420
 12786971
370
    25
100
AcDbVertex
100
AcDb2dVertex
 10
106.6901285540566
 20
-140.5538668810942
 30
0.0
  0
VERTEX
  5
FF
330
FC
100
AcDbEntity
  8
Ebene 1
 62
    22
420
 12786971
370
    25
100
AcDbVertex
100
AcDb2dVertex
 10
105.5976887756839
 20
-140.8296467746884
 30
0.0
  0
VERTEX
  5
100
330
FC
100
AcDbEntity
  8
Ebene 1
 62
    22
420
 12786971
370
    25
100
AcDbVertex
100
AcDb2dVertex
 10
104.5302259395793
 20
-141.1118000949304
 30
0.0
  0
VERTEX
  5
101
330
FC
100
AcDbEntity
  8
Ebene 1
 62
    22
420
 12786971
370
    25
100
AcDbVertex
100
AcDb2dVertex
 10
103.4999701347153
 20
-141.4030829182083
 30
0.0
  0
VERTEX
  5
102
330
FC
100
AcDbEntity
  8
Ebene 1
 62
    22
420
 12786971
370
    25
100
AcDbVertex
100
AcDb2dVertex
 10
102.5191514500647
 20
-141.706768085233
 30
0.0
  0
VERTEX
  5
103
330
FC
100
AcDbEntity
  8
Ebene 1
 62
    22
420
 12786971
370
    25
100
AcDbVertex
100
AcDb2dVertex
 10
101.6003444841485
 20
-142.0257839271672
 30
0.0
  0
VERTEX
  5
104
330
FC
100
AcDbEntity
  8
Ebene 1
 62
    22
420
 12786971
370
    25
100
AcDbVertex
100
AcDb2dVertex
 10
100.7559515807138
 20
-142.3635755394959
 30
0.0
  0
VERTEX
  5
105
330
FC
100
AcDbEntity
  8
Ebene 1
 62
    22
420
 12786971
370
    25
100
AcDbVertex
100
AcDb2dVertex
 10
99.9982028287331
 20
-142.7228989986075
 30
0.0
  0
VERTEX
  5
106
330
FC
100
AcDbEntity
  8
Ebene 1
 62
    22
420
 12786971
370
    25
100
AcDbVertex
100
AcDb2dVertex
 10
99.33622773124233
 20
-143.1053045974702
 30
0.0
  0
VERTEX
  5
107
330
FC
100
AcDbEntity
  8
Ebene 1
 62
    22
420
 12786971
370
    25
100
AcDbVertex
100
AcDb2dVertex
 10
98.7655476641107
 20
-143.5056246928562
 30
0.0
  0
VERTEX
  5
108
330
FC
100
AcDbEntity
  8
Ebene 1
 62
    22
420
 12786971
370
    25
100
AcDbVertex
100
AcDb2dVertex
 10
98.27789439817359
 20
-143.9171413485693
 30
0.0
  0
VERTEX
  5
109
330
FC
100
AcDbEntity
  8
Ebene 1
 62
    22
420
 12786971
370
    25
100
AcDbVertex
100
AcDb2dVertex
 10
97.86517195904065
 20
-144.3326198640905
 30
0.0
  0
VERTEX
  5
10A
330
FC
100
AcDbEntity
  8
Ebene 1
 62
    22
420
 12786971
370
    25
100
AcDbVertex
100
AcDb2dVertex
 10
97.51962888187009
 20
-144.7455145579977
 30
0.0
  0
VERTEX
  5
10B
330
FC
100
AcDbEntity
  8
Ebene 1
 62
    22
420
 12786971
370
    25
100
AcDbVertex
100
AcDb2dVertex
 10
97.2329969374973
 20
-145.1487629845462
 30
0.0
  0
VERTEX
  5
10C
330
FC
100
AcDbEntity
  8
Ebene 1
 62
    22
420
 12786971
370
    25
100
AcDbVertex
100
AcDb2dVertex
 10
96.99718015153196
 20
-145.535819462314
 30
0.0
  0
VERTEX
  5
10D
330
FC
100
AcDbEntity
  8
Ebene 1
 62
    22
420
 12786971
370
    25
100
AcDbVertex
100
AcDb2dVertex
 10
96.80442705913224
 20
-145.8996215455564
 30
0.0
  0
VERTEX
  5
10E
330
FC
100
AcDbEntity
  8
Ebene 1
 62
    22
420
 12786971
370
    25
100
AcDbVertex
100
AcDb2dVertex
 10
96.6466416859078
 20
-146.2387911960792
 30
0.0
  0
VERTEX
  5
10F
330
FC
100
AcDbEntity
  8
Ebene 1
 62
    22
420
 12786971
370
    25
100
AcDbVertex
100
AcDb2dVertex
 10
96.51538354791977
 20
-146.5738267320197
 30
0.0
  0
VERTEX
  5
110
330
FC
100
AcDbEntity
  8
Ebene 1
 62
    22
420
 12786971
370
    25
100
AcDbVertex
100
AcDb2dVertex
 10
96.4027289255521
 20
-146.9309108790659
 30
0.0
  0
VERTEX
  5
111
330
FC
100
AcDbEntity
  8
Ebene 1
 62
    22
420
 12786971
370
    25
100
AcDbVertex
100
AcDb2dVertex
 10
96.30040958964018
 20
-147.3360541081313
 30
0.0
  0
VERTEX
  5
112
330
FC
100
AcDbEntity
  8
Ebene 1
 62
    22
420
 12786971
370
    25
100
AcDbVertex
100
AcDb2dVertex
 10
96.20032956579367
 20
-147.8150946353553
 30
0.0
  0
VERTEX
  5
113
330
FC
100
AcDbEntity
  8
Ebene 1
 62
    22
420
 12786971
370
    25
100
AcDbVertex
100
AcDb2dVertex
 10
96.09404837007371
 20
-148.3943874412
 30
0.0
  0
VERTEX
  5
114
330
FC
100
AcDbEntity
  8
Ebene 1
 62
    22
420
 12786971
370
    25
100
AcDbVertex
100
AcDb2dVertex
 10
95.97381453763849
 20
-149.0999429965792
 30
0.0
  0
VERTEX
  5
115
330
FC
100
AcDbEntity
  8
Ebene 1
 62
    22
420
 12786971
370
    25
100
AcDbVertex
100
AcDb2dVertex
 10
95.83101532977489
 20
-149.9574272628579
 30
0.0
  0
VERTEX
  5
116
330
FC
100
AcDbEntity
  8
Ebene 1
 62
    22
420
 12786971
370
    25
100
AcDbVertex
100
AcDb2dVertex
 10
95.65807153641535
 20
-150.9854437556564
 30
0.0
  0
VERTEX
  5
117
330
FC
100
AcDbEntity
  8
Ebene 1
 62
    22
420
 12786971
370
    25
100
AcDbVertex
100
AcDb2dVertex
 10
95.44826522136363
 20
-152.1698675834853
 30
0.0
  0
VERTEX
  5
118
330
FC
100
AcDbEntity
  8
Ebene 1
 62
    22
420
 12786971
370
    25
100
AcDbVertex
100
AcDb2dVertex
 10
95.19556746752056
 20
-153.4896836638845
 30
0.0
  0
VERTEX
  5
119
330
FC
100
AcDbEntity
  8
Ebene 1
 62
    22
420
 12786971
370
    25
100
AcDbVertex
100
AcDb2dVertex
 10
94.89360484823841
 20
-154.9224988761999
 30
0.0
  0
VERTEX
  5
11A
330
FC
100
AcDbEntity
  8
Ebene 1
 62
    22
420
 12786971
370
    25
100
AcDbVertex
100
AcDb2dVertex
 10
94.536348446418
 20
-156.4472981379715
 30
0.0
  0
VERTEX
  5
11B
330
FC
100
AcDbEntity
  8
Ebene 1
 62
    22
420
 12786971
370
    25
100
AcDbVertex
100
AcDb2dVertex
 10
94.11759709018588
 20
-158.0420328380937
 30
0.0
  0
VERTEX
  5
11C
330
FC
100
AcDbEntity
  8
Ebene 1
 62
    22
420
 12786971
370
    25
100
AcDbVertex
100
AcDb2dVertex
 10
93.63097735289435
 20
-159.6853433845578
 30
0.0
  0
VERTEX
  5
11D
330
FC
100
AcDbEntity
  8
Ebene 1
 62
    22
420
 12786971
370
    25
100
AcDbVertex
100
AcDb2dVertex
 10
93.07028806266993
 20
-161.355525675807
 30
0.0
  0
VERTEX
  5
11E
330
FC
100
AcDbEntity
  8
Ebene 1
 62
    22
420
 12786971
370
    25
100
AcDbVertex
100
AcDb2dVertex
 10
92.43036157628478
 20
-163.0343207057692
 30
0.0
  0
VERTEX
  5
11F
330
FC
100
AcDbEntity
  8
Ebene 1
 62
    22
420
 12786971
370
    25
100
AcDbVertex
100
AcDb2dVertex
 10
91.70895858167346
 20
-164.7169053407652
 30
0.0
  0
VERTEX
  5
120
330
FC
100
AcDbEntity
  8
Ebene 1
 62
    22
420
 12786971
370
    25
100
AcDbVertex
100
AcDb2dVertex
 10
90.90504555019041
 20
-166.4022460521495
 30
0.0
  0
VERTEX
  5
121
330
FC
100
AcDbEntity
  8
Ebene 1
 62
    22
420
 12786971
370
    25
100
AcDbVertex
100
AcDb2dVertex
 10
90.01724444364153
 20
-168.0886202921792
 30
0.0
  0
VERTEX
  5
122
330
FC
100
AcDbEntity
  8
Ebene 1
 62
    22
420
 12786971
370
    25
100
AcDbVertex
100
AcDb2dVertex
 10
89.04452173338123
 20
-169.774994532209
 30
0.0
  0
VERTEX
  5
123
330
FC
100
AcDbEntity
  8
Ebene 1
 62
    22
420
 12786971
370
    25
100
AcDbVertex
100
AcDb2dVertex
 10
87.9856716359897
 20
-171.4596462244962
 30
0.0
  0
VERTEX
  5
124
330
FC
100
AcDbEntity
  8
Ebene 1
 62
    22
420
 12786971
370
    25
100
AcDbVertex
100
AcDb2dVertex
 10
86.83931611327282
 20
-173.1411973308467
 30
0.0
  0
VERTEX
  5
125
330
FC
100
AcDbEntity
  8
Ebene 1
 62
    22
420
 12786971
370
    25
100
AcDbVertex
100
AcDb2dVertex
 10
85.60424938181075
 20
-174.8186143226148
 30
0.0
  0
VERTEX
  5
126
330
FC
100
AcDbEntity
  8
Ebene 1
 62
    22
420
 12786971
370
    25
100
AcDbVertex
100
AcDb2dVertex
 10
84.28167722502333
 20
-176.4905191616066
 30
0.0
  0
VERTEX
  5
127
330
FC
100
AcDbEntity
  8
Ebene 1
 62
    22
420
 12786971
370
    25
100
AcDbVertex
100
AcDb2dVertex
 10
82.88038463639796
 20
-178.157600866919
 30
0.0
  0
VERTEX
  5
128
330
FC
100
AcDbEntity
  8
Ebene 1
 62
    22
420
 12786971
370
    25
100
AcDbVertex
100
AcDb2dVertex
 10
81.41174043103595
 20
-179.8202039481005
 30
0.0
  0
VERTEX
  5
129
330
FC
100
AcDbEntity
  8
Ebene 1
 62
    22
420
 12786971
370
    25
100
AcDbVertex
100
AcDb2dVertex
 10
79.88694116926438
 20
-181.4793619337968
 30
0.0
  0
VERTEX
  5
12A
330
FC
100
AcDbEntity
  8
Ebene 1
 62
    22
420
 12786971
370
    25
100
AcDbVertex
100
AcDb2dVertex
 10
78.31735566618455
 20
-183.135763843105
 30
0.0
  0
VERTEX
  5
12B
330
FC
100
AcDbEntity
  8
Ebene 1
 62
    22
420
 12786971
370
    25
100
AcDbVertex
100
AcDb2dVertex
 10
76.71400822734928
 20
-184.7897541855734
 30
0.0
  0
VERTEX
  5
12C
330
FC
100
AcDbEntity
  8
Ebene 1
 62
    22
420
 12786971
370
    25
100
AcDbVertex
100
AcDb2dVertex
 10
75.08826766785988
 20
-186.4427109993963
 30
0.0
  0
VERTEX
  5
12D
330
FC
100
AcDbEntity
  8
Ebene 1
 62
    22
420
 12786971
370
    25
100
AcDbVertex
100
AcDb2dVertex
 10
73.45133054804342
 20
-188.0946342845736
 30
0.0
  0
SEQEND
  5
12E
330
FC
100
AcDbEntity
  8
Ebene 1
370
    25
  0
ENDBLK
  5
FB
330
F8
100
AcDbEntity
  8
0
100
AcDbBlockEnd
  0
BLOCK
  5
131
330
12F
100
AcDbEntity
  8
0
100
AcDbBlockBegin
  2
block 27
 70
     0
 71
     0
 10
0.0
 20
0.0
 30
0.0
  3
block 27
  1

  0
SPLINE
  5
133
330
12F
100
AcDbEntity
  8
Ebene 1
 62
    22
420
 12786971
370
    25
100
AcDbSpline
210
0.0
220
0.0
230
1.0
 70
     8
 71
     3
 72
     8
 73
     4
 74
     0
 42
0.0000000001
 43
0.0000000001
 40
0.0
 40
0.0
 40
0.0
 40
0.0
 40
1.0
 40
1.0
 40
1.0
 40
1.0
 10
92.48410506585468
 20
-107.9553398710146
 30
0.0
 10
93.74638805165021
 20
-109.2563801810192
 30
0.0
 10
95.41312524741409
 20
-110.090265543224
 30
0.0
 10
97.21112058116597
 20
-110.3202256668644
 30
0.0
  0
ENDBLK
  5
132
330
12F
100
AcDbEntity
  8
0
100
AcDbBlockEnd
  0
BLOCK
  5
136
330
134
100
AcDbEntity
  8
0
100
AcDbBlockBegin
  2
block 28
 70
     0
 71
     0
 10
0.0
 20
0.0
 30
0.0
  3
block 28
  1

  0
POLYLINE
  5
138
330
134
100
AcDbEntity
  8
Ebene 1
 62
    22
420
 12786971
370
    25
100
AcDb2dPolyline
 66
     1
 10
0.0
 20
0.0
 30
0.0
  0
VERTEX
  5
139
330
138
100
AcDbEntity
  8
Ebene 1
 62
    22
420
 12786971
370
    25
100
AcDbVertex
100
AcDb2dVertex
 10
97.21112058116597
 20
-110.3202256668644
 30
0.0
  0
VERTEX
  5
13A
330
138
100
AcDbEntity
  8
Ebene 1
 62
    22
420
 12786971
370
    25
100
AcDbVertex
100
AcDb2dVertex
 10
103.3042887111531
 20
-110.2954209793706
 30
0.0
  0
SEQEND
  5
13B
330
138
100
AcDbEntity
  8
Ebene 1
370
    25
  0
ENDBLK
  5
137
330
134
100
AcDbEntity
  8
0
100
AcDbBlockEnd
  0
BLOCK
  5
13E
330
13C
100
AcDbEntity
  8
0
100
AcDbBlockBegin
  2
block 29
 70
     0
 71
     0
 10
0.0
 20
0.0
 30
0.0
  3
block 29
  1

  0
SPLINE
  5
140
330
13C
100
AcDbEntity
  8
Ebene 1
 62
    22
420
 12786971
370
    25
100
AcDbSpline
210
0.0
220
0.0
230
1.0
 70
    11
 71
     3
 72
    20
 73
    16
 74
     0
 42
0.0000000001
 43
0.0000000001
 40
0.0
 40
0.0
 40
0.0
 40
0.0
 40
1.0
 40
1.0
 40
1.0
 40
2.0
 40
2.0
 40
2.0
 40
3.0
 40
3.0
 40
3.0
 40
4.0
 40
4.0
 40
4.0
 40
5.0
 40
5.0
 40
5.0
 40
5.0
 10
68.95134682521008
 20
-181.0945447680944
 30
0.0
 10
68.95134682521008
 20
-178.0570040787497
 30
0.0
 10
66.4887925723535
 20
-175.5947943354416
 30
0.0
 10
63.45125188300872
 20
-175.5947943354416
 30
0.0
 10
60.41371119366394
 20
-175.5947943354416
 30
0.0
 10
57.95132919558161
 20
-178.0570040787497
 30
0.0
 10
57.95132919558161
 20
-181.0945447680944
 30
0.0
 10
57.95132919558161
 20
-184.1320854574392
 30
0.0
 10
60.41371119366394
 20
-186.5946397102958
 30
0.0
 10
63.45125188300872
 20
-186.5946397102958
 30
0.0
 10
66.4887925723535
 20
-186.5946397102958
 30
0.0
 10
68.95134682521008
 20
-184.1320854574392
 30
0.0
 10
68.95134682521008
 20
-181.0945447680944
 30
0.0
 10
68.95134682521008
 20
-181.0945447680944
 30
0.0
 10
68.95134682521008
 20
-181.0945447680944
 30
0.0
 10
68.95134682521008
 20
-181.0945447680944
 30
0.0
  0
ENDBLK
  5
13F
330
13C
100
AcDbEntity
  8
0
100
AcDbBlockEnd
  0
BLOCK
  5
143
330
141
100
AcDbEntity
  8
0
100
AcDbBlockBegin
  2
block 30
 70
     0
 71
     0
 10
0.0
 20
0.0
 30
0.0
  3
block 30
  1

  0
POLYLINE
  5
145
330
141
100
AcDbEntity
  8
Ebene 1
 62
    22
420
 12786971
370
    25
100
AcDb2dPolyline
 66
     1
 10
0.0
 20
0.0
 30
0.0
  0
VERTEX
  5
146
330
145
100
AcDbEntity
  8
Ebene 1
 62
    22
420
 12786971
370
    25
100
AcDbVertex
100
AcDb2dVertex
 10
69.00285100271456
 20
-83.7523383037147
 30
0.0
  0
VERTEX
  5
147
330
145
100
AcDbEntity
  8
Ebene 1
 62
    22
420
 12786971
370
    25
100
AcDbVertex
100
AcDb2dVertex
 10
92.48410506585468
 20
-107.9553398710146
 30
0.0
  0
SEQEND
  5
148
330
145
100
AcDbEntity
  8
Ebene 1
370
    25
  0
ENDBLK
  5
144
330
141
100
AcDbEntity
  8
0
100
AcDbBlockEnd
  0
ENDSEC
  0
SECTION
  2
ENTITIES
  0
INSERT
  5
3D
330
1F
100
AcDbEntity
  8
Ebene 1
100
AcDbBlockReference
  2
block 2
 10
0.0
 20
0.0
 30
0.0
  0
INSERT
  5
42
330
1F
100
AcDbEntity
  8
Ebene 1
100
AcDbBlockReference
  2
block 3
 10
0.0
 20
0.0
 30
0.0
  0
INSERT
  5
47
330
1F
100
AcDbEntity
  8
Ebene 1
100
AcDbBlockReference
  2
block 4
 10
0.0
 20
0.0
 30
0.0
  0
INSERT
  5
4C
330
1F
100
AcDbEntity
  8
Ebene 1
100
AcDbBlockReference
  2
block 5
 10
0.0
 20
0.0
 30
0.0
  0
INSERT
  5
54
330
1F
100
AcDbEntity
  8
Ebene 1
100
AcDbBlockReference
  2
block 6
 10
0.0
 20
0.0
 30
0.0
  0
INSERT
  5
59
330
1F
100
AcDbEntity
  8
Ebene 1
100
AcDbBlockReference
  2
block 7
 10
0.0
 20
0.0
 30
0.0
  0
INSERT
  5
5E
330
1F
100
AcDbEntity
  8
Ebene 1
100
AcDbBlockReference
  2
block 8
 10
0.0
 20
0.0
 30
0.0
  0
INSERT
  5
66
330
1F
100
AcDbEntity
  8
Ebene 1
100
AcDbBlockReference
  2
block 9
 10
0.0
 20
0.0
 30
0.0
  0
INSERT
  5
9D
330
1F
100
AcDbEntity
  8
Ebene 1
100
AcDbBlockReference
  2
block 10
 10
0.0
 20
0.0
 30
0.0
  0
INSERT
  5
A5
330
1F
100
AcDbEntity
  8
Ebene 1
100
AcDbBlockReference
  2
block 11
 10
0.0
 20
0.0
 30
0.0
  0
INSERT
  5
AA
330
1F
100
AcDbEntity
  8
Ebene 1
100
AcDbBlockReference
  2
block 12
 10
0.0
 20
0.0
 30
0.0
  0
INSERT
  5
AF
330
1F
100
AcDbEntity
  8
Ebene 1
100
AcDbBlockReference
  2
block 13
 10
0.0
 20
0.0
 30
0.0
  0
INSERT
  5
B4
330
1F
100
AcDbEntity
  8
Ebene 1
100
AcDbBlockReference
  2
block 14
 10
0.0
 20
0.0
 30
0.0
  0
INSERT
  5
B9
330
1F
100
AcDbEntity
  8
Ebene 1
100
AcDbBlockReference
  2
block 15
 10
0.0
 20
0.0
 30
0.0
  0
INSERT
  5
C1
330
1F
100
AcDbEntity
  8
Ebene 1
100
AcDbBlockReference
  2
block 16
 10
0.0
 20
0.0
 30
0.0
  0
INSERT
  5
C6
330
1F
100
AcDbEntity
  8
Ebene 1
100
AcDbBlockReference
  2
block 17
 10
0.0
 20
0.0
 30
0.0
  0
INSERT
  5
CB
330
1F
100
AcDbEntity
  8
Ebene 1
100
AcDbBlockReference
  2
block 18
 10
0.0
 20
0.0
 30
0.0
  0
INSERT
  5
D0
330
1F
100
AcDbEntity
  8
Ebene 1
100
AcDbBlockReference
  2
block 19
 10
0.0
 20
0.0
 30
0.0
  0
INSERT
  5
D5
330
1F
100
AcDbEntity
  8
Ebene 1
100
AcDbBlockReference
  2
block 20
 10
0.0
 20
0.0
 30
0.0
  0
INSERT
  5
DA
330
1F
100
AcDbEntity
  8
Ebene 1
100
AcDbBlockReference
  2
block 21
 10
0.0
 20
0.0
 30
0.0
  0
INSERT
  5
DF
330
1F
100
AcDbEntity
  8
Ebene 1
100
AcDbBlockReference
  2
block 22
 10
0.0
 20
0.0
 30
0.0
  0
INSERT
  5
E7
330
1F
100
AcDbEntity
  8
Ebene 1
100
AcDbBlockReference
  2
block 23
 10
0.0
 20
0.0
 30
0.0
  0
INSERT
  5
EC
330
1F
100
AcDbEntity
  8
Ebene 1
100
AcDbBlockReference
  2
block 24
 10
0.0
 20
0.0
 30
0.0
  0
INSERT
  5
F1
330
1F
100
AcDbEntity
  8
Ebene 1
100
AcDbBlockReference
  2
block 25
 10
0.0
 20
0.0
 30
0.0
  0
INSERT
  5
F9
330
1F
100
AcDbEntity
  8
Ebene 1
100
AcDbBlockReference
  2
block 26
 10
0.0
 20
0.0
 30
0.0
  0
INSERT
  5
130
330
1F
100
AcDbEntity
  8
Ebene 1
100
AcDbBlockReference
  2
block 27
 10
0.0
 20
0.0
 30
0.0
  0
INSERT
  5
135
330
1F
100
AcDbEntity
  8
Ebene 1
100
AcDbBlockReference
  2
block 28
 10
0.0
 20
0.0
 30
0.0
  0
INSERT
  5
13D
330
1F
100
AcDbEntity
  8
Ebene 1
100
AcDbBlockReference
  2
block 29
 10
0.0
 20
0.0
 30
0.0
  0
INSERT
  5
142
330
1F
100
AcDbEntity
  8
Ebene 1
100
AcDbBlockReference
  2
block 30
 10
0.0
 20
0.0
 30
0.0
  0
ENDSEC
  0
SECTION
  2
OBJECTS
  0
DICTIONARY
  5
C
330
0
100
AcDbDictionary
281
     1
  3
ACAD_GROUP
350
D
  3
ACAD_LAYOUT
350
1A
  3
ACAD_MLINESTYLE
350
17
  3
ACAD_PLOTSETTINGS
350
19
  3
ACAD_PLOTSTYLENAME
350
E
  3
ACAD_TABLESTYLE
350
149
  3
ACAD_VISUALSTYLE
350
2A
  0
DICTIONARY
  5
D
102
{ACAD_REACTORS
330
C
102
}
330
C
100
AcDbDictionary
281
     1
  0
DICTIONARY
  5
1A
102
{ACAD_REACTORS
330
C
102
}
330
C
100
AcDbDictionary
281
     1
  3
Layout1
350
1E
  3
Layout2
350
26
  3
Model
350
22
  0
DICTIONARY
  5
17
102
{ACAD_REACTORS
330
C
102
}
330
C
100
AcDbDictionary
281
     1
  3
Standard
350
18
  0
DICTIONARY
  5
19
102
{ACAD_REACTORS
330
C
102
}
330
C
100
AcDbDictionary
281
     1
  0
ACDBDICTIONARYWDFLT
  5
E
102
{ACAD_REACTORS
330
C
102
}
330
C
100
AcDbDictionary
281
     1
  3
Normal
350
F
100
AcDbDictionaryWithDefault
340
F
  0
DICTIONARY
  5
149
102
{ACAD_REACTORS
330
C
102
}
330
C
100
AcDbDictionary
281
     1
  0
DICTIONARY
  5
2A
102
{ACAD_REACTORS
330
C
102
}
330
C
100
AcDbDictionary
281
     1
  3
2dWireframe
350
2F
  3
3D Hidden
350
31
  3
3dWireframe
350
30
  3
Basic
350
32
  3
Brighten
350
36
  3
ColorChange
350
3A
  3
Conceptual
350
34
  3
Dim
350
35
  3
Facepattern
350
39
  3
Flat
350
2B
  3
FlatWithEdges
350
2C
  3
Gouraud
350
2D
  3
GouraudWithEdges
350
2E
  3
Linepattern
350
38
  3
Realistic
350
33
  3
Thicken
350
37
  0
LAYOUT
  5
1E
102
{ACAD_REACTORS
330
1A
102
}
330
1A
100
AcDbPlotSettings
  1

  2
none_device
  4

  6

 40
0.0
 41
0.0
 42
0.0
 43
0.0
 44
0.0
 45
0.0
 46
0.0
 47
0.0
 48
0.0
 49
0.0
140
0.0
141
0.0
142
1.0
143
1.0
 70
   688
 72
     0
 73
     0
 74
     5
  7

 75
    16
 76
     0
 77
     2
 78
   300
147
1.0
148
0.0
149
0.0
100
AcDbLayout
  1
Layout1
 70
     1
 71
     1
 10
0.0
 20
0.0
 11
12.0
 21
9.0
 12
0.0
 22
0.0
 32
0.0
 14
1.000000000000000E+20
 24
1.000000000000000E+20
 34
1.000000000000000E+20
 15
-1.000000000000000E+20
 25
-1.000000000000000E+20
 35
-1.000000000000000E+20
146
0.0
 13
0.0
 23
0.0
 33
0.0
 16
1.0
 26
0.0
 36
0.0
 17
0.0
 27
1.0
 37
0.0
 76
     0
330
1B
  0
LAYOUT
  5
26
102
{ACAD_REACTORS
330
1A
102
}
330
1A
100
AcDbPlotSettings
  1

  2
none_device
  4

  6

 40
0.0
 41
0.0
 42
0.0
 43
0.0
 44
0.0
 45
0.0
 46
0.0
 47
0.0
 48
0.0
 49
0.0
140
0.0
141
0.0
142
1.0
143
1.0
 70
   688
 72
     0
 73
     0
 74
     5
  7

 75
    16
 76
     0
 77
     2
 78
   300
147
1.0
148
0.0
149
0.0
100
AcDbLayout
  1
Layout2
 70
     1
 71
     2
 10
0.0
 20
0.0
 11
0.0
 21
0.0
 12
0.0
 22
0.0
 32
0.0
 14
0.0
 24
0.0
 34
0.0
 15
0.0
 25
0.0
 35
0.0
146
0.0
 13
0.0
 23
0.0
 33
0.0
 16
1.0
 26
0.0
 36
0.0
 17
0.0
 27
1.0
 37
0.0
 76
     0
330
23
  0
LAYOUT
  5
22
102
{ACAD_REACTORS
330
1A
102
}
330
1A
100
AcDbPlotSettings
  1

  2
none_device
  4

  6

 40
0.0
 41
0.0
 42
0.0
 43
0.0
 44
0.0
 45
0.0
 46
0.0
 47
0.0
 48
0.0
 49
0.0
140
0.0
141
0.0
142
1.0
143
1.0
 70
  1712
 72
     0
 73
     0
 74
     0
  7

 75
     0
 76
     0
 77
     2
 78
   300
147
1.0
148
0.0
149
0.0
100
AcDbLayout
  1
Model
 70
     1
 71
     0
 10
0.0
 20
0.0
 11
12.0
 21
9.0
 12
0.0
 22
0.0
 32
0.0
 14
1.000000000000000E+20
 24
1.000000000000000E+20
 34
1.000000000000000E+20
 15
-1.000000000000000E+20
 25
-1.000000000000000E+20
 35
-1.000000000000000E+20
146
0.0
 13
0.0
 23
0.0
 33
0.0
 16
1.0
 26
0.0
 36
0.0
 17
0.0
 27
1.0
 37
0.0
 76
     0
330
1F
331
29
  0
MLINESTYLE
  5
18
102
{ACAD_REACTORS
330
17
102
}
330
17
100
AcDbMlineStyle
  2
Standard
 70
     0
  3

 62
   256
 51
90.0
 52
90.0
 71
     2
 49
0.5
 62
   256
  6
BYLAYER
 49
-0.5
 62
   256
  6
BYLAYER
  0
ACDBPLACEHOLDER
  5
F
102
{ACAD_REACTORS
330
E
102
}
330
E
  0
VISUALSTYLE
  5
2F
102
{ACAD_REACTORS
330
2A
102
}
330
2A
100
AcDbVisualStyle
  2
2dWireframe
 70
     4
 71
     0
 72
     2
 73
     0
 90
        0
 40
-0.6
 41
-30.0
 62
     5
 63
     7
421
 16777215
 74
     1
 91
        4
 64
     7
 65
   257
 75
     1
175
     1
 42
1.0
 92
        0
 66
   257
 43
1.0
 76
     1
 77
     6
 78
     2
 67
     7
 79
     5
170
     0
171
     0
290
     0
174
     0
 93
        1
 44
0.0
173
     0
291
     0
 45
0.0
1001
ACAD
1000
AcDbSavedByObjectVersion
1070
     0
  0
VISUALSTYLE
  5
31
102
{ACAD_REACTORS
330
2A
102
}
330
2A
100
AcDbVisualStyle
  2
3D Hidden
 70
     6
 71
     1
 72
     2
 73
     2
 90
        0
 40
-0.6
 41
-30.0
 62
     5
 63
     7
421
 16777215
 74
     2
 91
        2
 64
     7
 65
   257
 75
     2
175
     1
 42
40.0
 92
        0
 66
   257
 43
1.0
 76
     1
 77
     6
 78
     2
 67
     7
 79
     3
170
     0
171
     0
290
     0
174
     0
 93
        1
 44
0.0
173
     0
291
     0
 45
0.0
1001
ACAD
1000
AcDbSavedByObjectVersion
1070
     0
  0
VISUALSTYLE
  5
30
102
{ACAD_REACTORS
330
2A
102
}
330
2A
100
AcDbVisualStyle
  2
3dWireframe
 70
     5
 71
     0
 72
     2
 73
     0
 90
        0
 40
-0.6
 41
-30.0
 62
     5
 63
     7
421
 16777215
 74
     1
 91
        4
 64
     7
 65
   257
 75
     1
175
     1
 42
1.0
 92
        0
 66
   257
 43
1.0
 76
     1
 77
     6
 78
     2
 67
     7
 79
     5
170
     0
171
     0
290
     0
174
     0
 93
        1
 44
0.0
173
     0
291
     0
 45
0.0
1001
ACAD
1000
AcDbSavedByObjectVersion
1070
     0
  0
VISUALSTYLE
  5
32
102
{ACAD_REACTORS
330
2A
102
}
330
2A
100
AcDbVisualStyle
  2
Basic
 70
     7
 71
     1
 72
     0
 73
     1
 90
        0
 40
-0.6
 41
-30.0
 62
     5
 63
     7
421
 16777215
 74
     0
 91
        4
 64
     7
 65
   257
 75
     1
175
     1
 42
1.0
 92
        8
 66
     7
 43
1.0
 76
     1
 77
     6
 78
     2
 67
     7
 79
     5
170
     0
171
     0
290
     0
174
     0
 93
        1
 44
0.0
173
     0
291
     1
 45
0.0
1001
ACAD
1000
AcDbSavedByObjectVersion
1070
     0
  0
VISUALSTYLE
  5
36
102
{ACAD_REACTORS
330
2A
102
}
330
2A
100
AcDbVisualStyle
  2
Brighten
 70
    12
 71
     2
 72
     2
 73
     0
 90
        0
 40
-0.6
 41
-30.0
 62
     5
 63
     7
421
 16777215
 74
     1
 91
        4
 64
     7
 65
   257
 75
     1
175
     1
 42
1.0
 92
        8
 66
     7
 43
1.0
 76
     1
 77
     6
 78
     2
 67
     7
 79
     5
170
     0
171
     0
290
     0
174
     0
 93
        1
 44
50.0
173
     0
291
     1
 45
0.0
1001
ACAD
1000
AcDbSavedByObjectVersion
1070
     0
  0
VISUALSTYLE
  5
3A
102
{ACAD_REACTORS
330
2A
102
}
330
2A
100
AcDbVisualStyle
  2
ColorChange
 70
    16
 71
     2
 72
     2
 73
     3
 90
        0
 40
-0.6
 41
-30.0
 62
     5
 63
     8
421
  8421504
 74
     1
 91
        4
 64
     7
 65
   257
 75
     1
175
     1
 42
1.0
 92
        8
 66
     8
424
  8421504
 43
1.0
 76
     1
 77
     6
 78
     2
 67
     7
 79
     5
170
     0
171
     0
290
     0
174
     0
 93
        1
 44
0.0
173
     0
291
     1
 45
0.0
1001
ACAD
1000
AcDbSavedByObjectVersion
1070
     0
  0
VISUALSTYLE
  5
34
102
{ACAD_REACTORS
330
2A
102
}
330
2A
100
AcDbVisualStyle
  2
Conceptual
 70
     9
 71
     3
 72
     2
 73
     0
 90
        0
 40
-0.6
 41
-30.0
 62
     5
 63
     7
421
 16777215
 74
     2
 91
        2
 64
     7
 65
   257
 75
     1
175
     1
 42
40.0
 92
        8
 66
     7
 43
1.0
 76
     1
 77
     6
 78
     2
 67
     7
 79
     3
170
     0
171
     0
290
     0
174
     0
 93
        1
 44
0.0
173
     0
291
     0
 45
0.0
1001
ACAD
1000
AcDbSavedByObjectVersion
1070
     0
  0
VISUALSTYLE
  5
35
102
{ACAD_REACTORS
330
2A
102
}
330
2A
100
AcDbVisualStyle
  2
Dim
 70
    11
 71
     2
 72
     2
 73
     0
 90
        0
 40
-0.6
 41
-30.0
 62
     5
 63
     7
421
 16777215
 74
     1
 91
        4
 64
     7
 65
   257
 75
     1
175
     1
 42
1.0
 92
        8
 66
     7
 43
1.0
 76
     1
 77
     6
 78
     2
 67
     7
 79
     5
170
     0
171
     0
290
     0
174
     0
 93
        1
 44
-50.0
173
     0
291
     1
 45
0.0
1001
ACAD
1000
AcDbSavedByObjectVersion
1070
     0
  0
VISUALSTYLE
  5
39
102
{ACAD_REACTORS
330
2A
102
}
330
2A
100
AcDbVisualStyle
  2
Facepattern
 70
    15
 71
     2
 72
     2
 73
     0
 90
        0
 40
-0.6
 41
-30.0
 62
     5
 63
     7
421
 16777215
 74
     1
 91
        4
 64
     7
 65
   257
 75
     1
175
     1
 42
1.0
 92
        8
 66
     7
 43
1.0
 76
     1
 77
     6
 78
     2
 67
     7
 79
     5
170
     0
171
     0
290
     0
174
     0
 93
        1
 44
0.0
173
     0
291
     1
 45
0.0
1001
ACAD
1000
AcDbSavedByObjectVersion
1070
     0
  0
VISUALSTYLE
  5
2B
102
{ACAD_REACTORS
330
2A
102
}
330
2A
100
AcDbVisualStyle
  2
Flat
 70
     0
 71
     2
 72
     1
 73
     1
 90
        2
 40
-0.6
 41
30.0
 62
     5
 63
     7
421
 16777215
 74
     0
 91
        4
 64
     7
 65
   257
 75
     1
175
     1
 42
1.0
 92
        8
 66
     7
 43
1.0
 76
     1
 77
     6
 78
     2
 67
     7
 79
     5
170
     0
171
     0
290
     0
174
     0
 93
       13
 44
0.0
173
     0
291
     1
 45
0.0
1001
ACAD
1000
AcDbSavedByObjectVersion
1070
     0
  0
VISUALSTYLE
  5
2C
102
{ACAD_REACTORS
330
2A
102
}
330
2A
100
AcDbVisualStyle
  2
FlatWithEdges
 70
     1
 71
     2
 72
     1
 73
     1
 90
        2
 40
-0.6
 41
30.0
 62
     5
 63
     7
421
 16777215
 74
     1
 91
        4
 64
     7
 65
   257
 75
     1
175
     1
 42
1.0
 92
        0
 66
   257
 43
1.0
 76
     1
 77
     6
 78
     2
 67
     7
 79
     5
170
     0
171
     0
290
     0
174
     0
 93
       13
 44
0.0
173
     0
291
     1
 45
0.0
1001
ACAD
1000
AcDbSavedByObjectVersion
1070
     0
  0
VISUALSTYLE
  5
2D
102
{ACAD_REACTORS
330
2A
102
}
330
2A
100
AcDbVisualStyle
  2
Gouraud
 70
     2
 71
     2
 72
     2
 73
     1
 90
        2
 40
-0.6
 41
30.0
 62
     5
 63
     7
421
 16777215
 74
     0
 91
        4
 64
     7
 65
   257
 75
     1
175
     1
 42
1.0
 92
        0
 66
     7
 43
1.0
 76
     1
 77
     6
 78
     2
 67
     7
 79
     5
170
     0
171
     0
290
     0
174
     0
 93
       13
 44
0.0
173
     0
291
     1
 45
0.0
1001
ACAD
1000
AcDbSavedByObjectVersion
1070
     0
  0
VISUALSTYLE
  5
2E
102
{ACAD_REACTORS
330
2A
102
}
330
2A
100
AcDbVisualStyle
  2
GouraudWithEdges
 70
     3
 71
     2
 72
     2
 73
     1
 90
        2
 40
-0.6
 41
30.0
 62
     5
 63
     7
421
 16777215
 74
     1
 91
        4
 64
     7
 65
   257
 75
     1
175
     1
 42
1.0
 92
        0
 66
   257
 43
1.0
 76
     1
 77
     6
 78
     2
 67
     7
 79
     5
170
     0
171
     0
290
     0
174
     0
 93
       13
 44
0.0
173
     0
291
     1
 45
0.0
1001
ACAD
1000
AcDbSavedByObjectVersion
1070
     0
  0
VISUALSTYLE
  5
38
102
{ACAD_REACTORS
330
2A
102
}
330
2A
100
AcDbVisualStyle
  2
Linepattern
 70
    14
 71
     2
 72
     2
 73
     0
 90
        0
 40
-0.6
 41
-30.0
 62
     5
 63
     7
421
 16777215
 74
     1
 91
        4
 64
     7
 65
   257
 75
     7
175
     7
 42
1.0
 92
        8
 66
     7
 43
1.0
 76
     1
 77
     6
 78
     2
 67
     7
 79
     5
170
     0
171
     0
290
     0
174
     0
 93
        1
 44
0.0
173
     0
291
     1
 45
0.0
1001
ACAD
1000
AcDbSavedByObjectVersion
1070
     0
  0
VISUALSTYLE
  5
33
102
{ACAD_REACTORS
330
2A
102
}
330
2A
100
AcDbVisualStyle
  2
Realistic
 70
     8
 71
     2
 72
     2
 73
     0
 90
        0
 40
-0.6
 41
-30.0
 62
     5
 63
     7
421
 16777215
 74
     1
 91
        0
 64
     7
 65
   257
 75
     1
175
     1
 42
1.0
 92
        8
 66
     8
424
  7895160
 43
1.0
 76
     1
 77
     6
 78
     2
 67
     7
 79
     5
170
     0
171
     0
290
     0
174
     0
 93
       13
 44
0.0
173
     0
291
     0
 45
0.0
1001
ACAD
1000
AcDbSavedByObjectVersion
1070
     0
  0
VISUALSTYLE
  5
37
102
{ACAD_REACTORS
330
2A
102
}
330
2A
100
AcDbVisualStyle
  2
Thicken
 70
    13
 71
     2
 72
     2
 73
     0
 90
        0
 40
-0.6
 41
-30.0
 62
     5
 63
     7
421
 16777215
 74
     1
 91
        4
 64
     7
 65
   257
 75
     1
175
     1
 42
1.0
 92
       12
 66
     7
 43
1.0
 76
     1
 77
     6
 78
     2
 67
     7
 79
     5
170
     0
171
     0
290
     0
174
     0
 93
        1
 44
0.0
173
     0
291
     1
 45
0.0
1001
ACAD
1000
AcDbSavedByObjectVersion
1070
     0
  0
ENDSEC
  0
EOF
