ISO-10303-21;
HEADER;
/* Generated by software containing ST-Developer
 * from STEP Tools, Inc. (www.steptools.com) 
 */

FILE_DESCRIPTION(
/* description */ (''),
/* implementation_level */ '2;1');

FILE_NAME(
/* name */ 
'C:\\Users\\mfr\\Desktop\\mediatektur\\Morini 500 Bremse Bolzen.stp',
/* time_stamp */ '2020-04-13T16:36:47+02:00',
/* author */ ('mfr'),
/* organization */ (''),
/* preprocessor_version */ 'ST-DEVELOPER v16.5',
/* originating_system */ 'Autodesk Inventor 2017',
/* authorisation */ '');

FILE_SCHEMA (('AUTOMOTIVE_DESIGN { 1 0 10303 214 3 1 1 }'));
ENDSEC;

DATA;
#10=MECHANICAL_DESIGN_GEOMETRIC_PRESENTATION_REPRESENTATION('',(#13),#315);
#11=SHAPE_REPRESENTATION_RELATIONSHIP('SRR','None',#324,#12);
#12=ADVANCED_BREP_SHAPE_REPRESENTATION('',(#14),#314);
#13=STYLED_ITEM('',(#333),#14);
#14=MANIFOLD_SOLID_BREP('Volumenk\X\F6rper1',#171);
#15=PLANE('',#184);
#16=PLANE('',#190);
#17=PLANE('',#191);
#18=PLANE('',#198);
#19=PLANE('',#199);
#20=PLANE('',#204);
#21=PLANE('',#207);
#22=CYLINDRICAL_SURFACE('',#182,4.);
#23=CYLINDRICAL_SURFACE('',#188,2.975);
#24=CYLINDRICAL_SURFACE('',#193,2.5);
#25=CYLINDRICAL_SURFACE('',#195,2.975);
#26=CYLINDRICAL_SURFACE('',#202,4.);
#27=CYLINDRICAL_SURFACE('',#205,3.);
#28=FACE_BOUND('',#57,.T.);
#29=FACE_BOUND('',#59,.T.);
#30=FACE_BOUND('',#62,.T.);
#31=FACE_BOUND('',#64,.T.);
#32=FACE_BOUND('',#67,.T.);
#33=FACE_BOUND('',#69,.T.);
#34=FACE_BOUND('',#71,.T.);
#35=FACE_BOUND('',#73,.T.);
#36=FACE_BOUND('',#75,.T.);
#37=FACE_BOUND('',#77,.T.);
#38=FACE_BOUND('',#79,.T.);
#39=FACE_BOUND('',#81,.T.);
#40=FACE_BOUND('',#83,.T.);
#41=FACE_OUTER_BOUND('',#56,.T.);
#42=FACE_OUTER_BOUND('',#58,.T.);
#43=FACE_OUTER_BOUND('',#60,.T.);
#44=FACE_OUTER_BOUND('',#61,.T.);
#45=FACE_OUTER_BOUND('',#63,.T.);
#46=FACE_OUTER_BOUND('',#65,.T.);
#47=FACE_OUTER_BOUND('',#66,.T.);
#48=FACE_OUTER_BOUND('',#68,.T.);
#49=FACE_OUTER_BOUND('',#70,.T.);
#50=FACE_OUTER_BOUND('',#72,.T.);
#51=FACE_OUTER_BOUND('',#74,.T.);
#52=FACE_OUTER_BOUND('',#76,.T.);
#53=FACE_OUTER_BOUND('',#78,.T.);
#54=FACE_OUTER_BOUND('',#80,.T.);
#55=FACE_OUTER_BOUND('',#82,.T.);
#56=EDGE_LOOP('',(#126));
#57=EDGE_LOOP('',(#127));
#58=EDGE_LOOP('',(#128));
#59=EDGE_LOOP('',(#129));
#60=EDGE_LOOP('',(#130));
#61=EDGE_LOOP('',(#131));
#62=EDGE_LOOP('',(#132));
#63=EDGE_LOOP('',(#133));
#64=EDGE_LOOP('',(#134));
#65=EDGE_LOOP('',(#135));
#66=EDGE_LOOP('',(#136));
#67=EDGE_LOOP('',(#137));
#68=EDGE_LOOP('',(#138));
#69=EDGE_LOOP('',(#139));
#70=EDGE_LOOP('',(#140));
#71=EDGE_LOOP('',(#141));
#72=EDGE_LOOP('',(#142));
#73=EDGE_LOOP('',(#143));
#74=EDGE_LOOP('',(#144));
#75=EDGE_LOOP('',(#145));
#76=EDGE_LOOP('',(#146));
#77=EDGE_LOOP('',(#147));
#78=EDGE_LOOP('',(#148));
#79=EDGE_LOOP('',(#149));
#80=EDGE_LOOP('',(#150));
#81=EDGE_LOOP('',(#151));
#82=EDGE_LOOP('',(#152));
#83=EDGE_LOOP('',(#153));
#84=CIRCLE('',#180,4.);
#85=CIRCLE('',#181,3.5);
#86=CIRCLE('',#183,4.);
#87=CIRCLE('',#186,2.975);
#88=CIRCLE('',#187,2.475);
#89=CIRCLE('',#189,2.975);
#90=CIRCLE('',#192,2.5);
#91=CIRCLE('',#194,2.5);
#92=CIRCLE('',#196,2.975);
#93=CIRCLE('',#197,2.975);
#94=CIRCLE('',#200,4.);
#95=CIRCLE('',#201,3.);
#96=CIRCLE('',#203,4.);
#97=CIRCLE('',#206,3.);
#98=VERTEX_POINT('',#270);
#99=VERTEX_POINT('',#272);
#100=VERTEX_POINT('',#275);
#101=VERTEX_POINT('',#279);
#102=VERTEX_POINT('',#281);
#103=VERTEX_POINT('',#284);
#104=VERTEX_POINT('',#288);
#105=VERTEX_POINT('',#291);
#106=VERTEX_POINT('',#294);
#107=VERTEX_POINT('',#296);
#108=VERTEX_POINT('',#300);
#109=VERTEX_POINT('',#302);
#110=VERTEX_POINT('',#305);
#111=VERTEX_POINT('',#309);
#112=EDGE_CURVE('',#98,#98,#84,.T.);
#113=EDGE_CURVE('',#99,#99,#85,.T.);
#114=EDGE_CURVE('',#100,#100,#86,.T.);
#115=EDGE_CURVE('',#101,#101,#87,.T.);
#116=EDGE_CURVE('',#102,#102,#88,.T.);
#117=EDGE_CURVE('',#103,#103,#89,.T.);
#118=EDGE_CURVE('',#104,#104,#90,.T.);
#119=EDGE_CURVE('',#105,#105,#91,.T.);
#120=EDGE_CURVE('',#106,#106,#92,.T.);
#121=EDGE_CURVE('',#107,#107,#93,.T.);
#122=EDGE_CURVE('',#108,#108,#94,.T.);
#123=EDGE_CURVE('',#109,#109,#95,.T.);
#124=EDGE_CURVE('',#110,#110,#96,.T.);
#125=EDGE_CURVE('',#111,#111,#97,.T.);
#126=ORIENTED_EDGE('',*,*,#112,.T.);
#127=ORIENTED_EDGE('',*,*,#113,.T.);
#128=ORIENTED_EDGE('',*,*,#114,.F.);
#129=ORIENTED_EDGE('',*,*,#112,.F.);
#130=ORIENTED_EDGE('',*,*,#113,.F.);
#131=ORIENTED_EDGE('',*,*,#115,.T.);
#132=ORIENTED_EDGE('',*,*,#116,.T.);
#133=ORIENTED_EDGE('',*,*,#117,.F.);
#134=ORIENTED_EDGE('',*,*,#115,.F.);
#135=ORIENTED_EDGE('',*,*,#116,.F.);
#136=ORIENTED_EDGE('',*,*,#117,.T.);
#137=ORIENTED_EDGE('',*,*,#118,.T.);
#138=ORIENTED_EDGE('',*,*,#118,.F.);
#139=ORIENTED_EDGE('',*,*,#119,.F.);
#140=ORIENTED_EDGE('',*,*,#120,.F.);
#141=ORIENTED_EDGE('',*,*,#121,.F.);
#142=ORIENTED_EDGE('',*,*,#120,.T.);
#143=ORIENTED_EDGE('',*,*,#119,.T.);
#144=ORIENTED_EDGE('',*,*,#122,.T.);
#145=ORIENTED_EDGE('',*,*,#123,.T.);
#146=ORIENTED_EDGE('',*,*,#124,.F.);
#147=ORIENTED_EDGE('',*,*,#122,.F.);
#148=ORIENTED_EDGE('',*,*,#124,.T.);
#149=ORIENTED_EDGE('',*,*,#121,.T.);
#150=ORIENTED_EDGE('',*,*,#123,.F.);
#151=ORIENTED_EDGE('',*,*,#125,.F.);
#152=ORIENTED_EDGE('',*,*,#114,.T.);
#153=ORIENTED_EDGE('',*,*,#125,.T.);
#154=CONICAL_SURFACE('',#179,3.75,45.);
#155=CONICAL_SURFACE('',#185,2.725,45.0000000000004);
#156=ADVANCED_FACE('',(#41,#28),#154,.T.);
#157=ADVANCED_FACE('',(#42,#29),#22,.T.);
#158=ADVANCED_FACE('',(#43),#15,.F.);
#159=ADVANCED_FACE('',(#44,#30),#155,.T.);
#160=ADVANCED_FACE('',(#45,#31),#23,.T.);
#161=ADVANCED_FACE('',(#46),#16,.T.);
#162=ADVANCED_FACE('',(#47,#32),#17,.F.);
#163=ADVANCED_FACE('',(#48,#33),#24,.T.);
#164=ADVANCED_FACE('',(#49,#34),#25,.T.);
#165=ADVANCED_FACE('',(#50,#35),#18,.T.);
#166=ADVANCED_FACE('',(#51,#36),#19,.F.);
#167=ADVANCED_FACE('',(#52,#37),#26,.T.);
#168=ADVANCED_FACE('',(#53,#38),#20,.T.);
#169=ADVANCED_FACE('',(#54,#39),#27,.T.);
#170=ADVANCED_FACE('',(#55,#40),#21,.T.);
#171=CLOSED_SHELL('',(#156,#157,#158,#159,#160,#161,#162,#163,#164,#165,
#166,#167,#168,#169,#170));
#172=DATE_TIME_ROLE('creation_date');
#173=APPLIED_DATE_AND_TIME_ASSIGNMENT(#174,#172,(#326));
#174=DATE_AND_TIME(#175,#176);
#175=CALENDAR_DATE(2020,27,3);
#176=LOCAL_TIME(14,26,41.,#177);
#177=COORDINATED_UNIVERSAL_TIME_OFFSET(0,0,.BEHIND.);
#178=AXIS2_PLACEMENT_3D('placement',#268,#208,#209);
#179=AXIS2_PLACEMENT_3D('',#269,#210,#211);
#180=AXIS2_PLACEMENT_3D('',#271,#212,#213);
#181=AXIS2_PLACEMENT_3D('',#273,#214,#215);
#182=AXIS2_PLACEMENT_3D('',#274,#216,#217);
#183=AXIS2_PLACEMENT_3D('',#276,#218,#219);
#184=AXIS2_PLACEMENT_3D('',#277,#220,#221);
#185=AXIS2_PLACEMENT_3D('',#278,#222,#223);
#186=AXIS2_PLACEMENT_3D('',#280,#224,#225);
#187=AXIS2_PLACEMENT_3D('',#282,#226,#227);
#188=AXIS2_PLACEMENT_3D('',#283,#228,#229);
#189=AXIS2_PLACEMENT_3D('',#285,#230,#231);
#190=AXIS2_PLACEMENT_3D('',#286,#232,#233);
#191=AXIS2_PLACEMENT_3D('',#287,#234,#235);
#192=AXIS2_PLACEMENT_3D('',#289,#236,#237);
#193=AXIS2_PLACEMENT_3D('',#290,#238,#239);
#194=AXIS2_PLACEMENT_3D('',#292,#240,#241);
#195=AXIS2_PLACEMENT_3D('',#293,#242,#243);
#196=AXIS2_PLACEMENT_3D('',#295,#244,#245);
#197=AXIS2_PLACEMENT_3D('',#297,#246,#247);
#198=AXIS2_PLACEMENT_3D('',#298,#248,#249);
#199=AXIS2_PLACEMENT_3D('',#299,#250,#251);
#200=AXIS2_PLACEMENT_3D('',#301,#252,#253);
#201=AXIS2_PLACEMENT_3D('',#303,#254,#255);
#202=AXIS2_PLACEMENT_3D('',#304,#256,#257);
#203=AXIS2_PLACEMENT_3D('',#306,#258,#259);
#204=AXIS2_PLACEMENT_3D('',#307,#260,#261);
#205=AXIS2_PLACEMENT_3D('',#308,#262,#263);
#206=AXIS2_PLACEMENT_3D('',#310,#264,#265);
#207=AXIS2_PLACEMENT_3D('',#311,#266,#267);
#208=DIRECTION('axis',(0.,0.,1.));
#209=DIRECTION('refdir',(1.,0.,0.));
#210=DIRECTION('center_axis',(0.,0.,1.));
#211=DIRECTION('ref_axis',(-1.,0.,0.));
#212=DIRECTION('center_axis',(0.,0.,-1.));
#213=DIRECTION('ref_axis',(-1.,0.,0.));
#214=DIRECTION('center_axis',(0.,0.,1.));
#215=DIRECTION('ref_axis',(-1.,0.,0.));
#216=DIRECTION('center_axis',(0.,0.,1.));
#217=DIRECTION('ref_axis',(-1.,0.,0.));
#218=DIRECTION('center_axis',(0.,0.,1.));
#219=DIRECTION('ref_axis',(-1.,0.,0.));
#220=DIRECTION('center_axis',(0.,0.,1.));
#221=DIRECTION('ref_axis',(1.,0.,0.));
#222=DIRECTION('center_axis',(0.,0.,-1.));
#223=DIRECTION('ref_axis',(-1.,0.,0.));
#224=DIRECTION('center_axis',(0.,0.,1.));
#225=DIRECTION('ref_axis',(-1.,0.,0.));
#226=DIRECTION('center_axis',(0.,0.,-1.));
#227=DIRECTION('ref_axis',(-1.,0.,0.));
#228=DIRECTION('center_axis',(0.,0.,1.));
#229=DIRECTION('ref_axis',(-1.,0.,0.));
#230=DIRECTION('center_axis',(0.,0.,-1.));
#231=DIRECTION('ref_axis',(-1.,0.,0.));
#232=DIRECTION('center_axis',(0.,0.,1.));
#233=DIRECTION('ref_axis',(1.,0.,0.));
#234=DIRECTION('center_axis',(0.,0.,1.));
#235=DIRECTION('ref_axis',(1.,0.,0.));
#236=DIRECTION('center_axis',(0.,0.,1.));
#237=DIRECTION('ref_axis',(-1.,0.,0.));
#238=DIRECTION('center_axis',(0.,0.,1.));
#239=DIRECTION('ref_axis',(-1.,0.,0.));
#240=DIRECTION('center_axis',(0.,0.,-1.));
#241=DIRECTION('ref_axis',(-1.,0.,0.));
#242=DIRECTION('center_axis',(0.,0.,1.));
#243=DIRECTION('ref_axis',(-1.,0.,0.));
#244=DIRECTION('center_axis',(0.,0.,1.));
#245=DIRECTION('ref_axis',(-1.,0.,0.));
#246=DIRECTION('center_axis',(0.,0.,-1.));
#247=DIRECTION('ref_axis',(-1.,0.,0.));
#248=DIRECTION('center_axis',(0.,0.,1.));
#249=DIRECTION('ref_axis',(1.,0.,0.));
#250=DIRECTION('center_axis',(0.,0.,1.));
#251=DIRECTION('ref_axis',(1.,0.,0.));
#252=DIRECTION('center_axis',(0.,0.,-1.));
#253=DIRECTION('ref_axis',(-1.,0.,0.));
#254=DIRECTION('center_axis',(0.,0.,1.));
#255=DIRECTION('ref_axis',(-1.,0.,0.));
#256=DIRECTION('center_axis',(0.,0.,1.));
#257=DIRECTION('ref_axis',(-1.,0.,0.));
#258=DIRECTION('center_axis',(0.,0.,1.));
#259=DIRECTION('ref_axis',(-1.,0.,0.));
#260=DIRECTION('center_axis',(0.,0.,1.));
#261=DIRECTION('ref_axis',(1.,0.,0.));
#262=DIRECTION('center_axis',(0.,0.,1.));
#263=DIRECTION('ref_axis',(-1.,0.,0.));
#264=DIRECTION('center_axis',(0.,0.,-1.));
#265=DIRECTION('ref_axis',(-1.,0.,0.));
#266=DIRECTION('center_axis',(0.,0.,1.));
#267=DIRECTION('ref_axis',(1.,0.,0.));
#268=CARTESIAN_POINT('',(0.,0.,0.));
#269=CARTESIAN_POINT('Origin',(0.,0.,0.25));
#270=CARTESIAN_POINT('',(4.,-4.89858719658941E-16,0.5));
#271=CARTESIAN_POINT('Origin',(0.,0.,0.5));
#272=CARTESIAN_POINT('',(3.5,4.28626379701574E-16,0.));
#273=CARTESIAN_POINT('Origin',(0.,0.,0.));
#274=CARTESIAN_POINT('Origin',(0.,0.,0.));
#275=CARTESIAN_POINT('',(4.,4.89858719658941E-16,2.));
#276=CARTESIAN_POINT('Origin',(0.,0.,2.));
#277=CARTESIAN_POINT('Origin',(-3.8776625516694E-16,-5.78241158658936E-17,
0.));
#278=CARTESIAN_POINT('Origin',(0.,0.,24.75));
#279=CARTESIAN_POINT('',(2.975,3.64332422746338E-16,24.5));
#280=CARTESIAN_POINT('Origin',(0.,0.,24.5));
#281=CARTESIAN_POINT('',(2.475,-3.0310008278897E-16,25.));
#282=CARTESIAN_POINT('Origin',(0.,0.,25.));
#283=CARTESIAN_POINT('Origin',(0.,0.,23.));
#284=CARTESIAN_POINT('',(2.975,3.64332422746338E-16,23.));
#285=CARTESIAN_POINT('Origin',(0.,0.,23.));
#286=CARTESIAN_POINT('Origin',(-1.8585445604471E-16,0.,25.));
#287=CARTESIAN_POINT('Origin',(-1.8585445604471E-16,0.,23.));
#288=CARTESIAN_POINT('',(2.5,3.06161699786838E-16,23.));
#289=CARTESIAN_POINT('Origin',(0.,0.,23.));
#290=CARTESIAN_POINT('Origin',(0.,0.,22.2));
#291=CARTESIAN_POINT('',(2.5,3.06161699786838E-16,22.2));
#292=CARTESIAN_POINT('Origin',(0.,0.,22.2));
#293=CARTESIAN_POINT('Origin',(0.,0.,10.));
#294=CARTESIAN_POINT('',(2.975,3.64332422746338E-16,22.2));
#295=CARTESIAN_POINT('Origin',(0.,0.,22.2));
#296=CARTESIAN_POINT('',(2.975,3.64332422746338E-16,10.));
#297=CARTESIAN_POINT('Origin',(0.,0.,10.));
#298=CARTESIAN_POINT('Origin',(-1.8585445604471E-16,0.,22.2));
#299=CARTESIAN_POINT('Origin',(-3.8776625516694E-16,-5.78241158658936E-17,
4.5));
#300=CARTESIAN_POINT('',(4.,4.89858719658941E-16,4.5));
#301=CARTESIAN_POINT('Origin',(0.,0.,4.5));
#302=CARTESIAN_POINT('',(3.,3.67394039744206E-16,4.5));
#303=CARTESIAN_POINT('Origin',(0.,0.,4.5));
#304=CARTESIAN_POINT('Origin',(0.,0.,4.5));
#305=CARTESIAN_POINT('',(4.,4.89858719658941E-16,10.));
#306=CARTESIAN_POINT('Origin',(0.,0.,10.));
#307=CARTESIAN_POINT('Origin',(-3.8776625516694E-16,-5.78241158658936E-17,
10.));
#308=CARTESIAN_POINT('Origin',(0.,0.,2.));
#309=CARTESIAN_POINT('',(3.,3.67394039744206E-16,2.));
#310=CARTESIAN_POINT('Origin',(0.,0.,2.));
#311=CARTESIAN_POINT('Origin',(-3.8776625516694E-16,-5.78241158658936E-17,
2.));
#312=UNCERTAINTY_MEASURE_WITH_UNIT(LENGTH_MEASURE(0.01),#316,
'DISTANCE_ACCURACY_VALUE',
'Maximum model space distance between geometric entities at asserted c
onnectivities');
#313=UNCERTAINTY_MEASURE_WITH_UNIT(LENGTH_MEASURE(1.E-6),#316,
'DISTANCE_ACCURACY_VALUE',
'Maximum model space distance between geometric entities at asserted c
onnectivities');
#314=(
GEOMETRIC_REPRESENTATION_CONTEXT(3)
GLOBAL_UNCERTAINTY_ASSIGNED_CONTEXT((#312))
GLOBAL_UNIT_ASSIGNED_CONTEXT((#316,#319,#317))
REPRESENTATION_CONTEXT('','3D')
);
#315=(
GEOMETRIC_REPRESENTATION_CONTEXT(3)
GLOBAL_UNCERTAINTY_ASSIGNED_CONTEXT((#313))
GLOBAL_UNIT_ASSIGNED_CONTEXT((#316,#319,#317))
REPRESENTATION_CONTEXT('','3D')
);
#316=(
LENGTH_UNIT()
NAMED_UNIT(*)
SI_UNIT(.MILLI.,.METRE.)
);
#317=(
NAMED_UNIT(*)
SI_UNIT($,.STERADIAN.)
SOLID_ANGLE_UNIT()
);
#318=DIMENSIONAL_EXPONENTS(0.,0.,0.,0.,0.,0.,0.);
#319=(
CONVERSION_BASED_UNIT('degree',#321)
NAMED_UNIT(#318)
PLANE_ANGLE_UNIT()
);
#320=(
NAMED_UNIT(*)
PLANE_ANGLE_UNIT()
SI_UNIT($,.RADIAN.)
);
#321=PLANE_ANGLE_MEASURE_WITH_UNIT(PLANE_ANGLE_MEASURE(0.01745329252),#320);
#322=SHAPE_DEFINITION_REPRESENTATION(#323,#324);
#323=PRODUCT_DEFINITION_SHAPE('',$,#326);
#324=SHAPE_REPRESENTATION('',(#178),#314);
#325=PRODUCT_DEFINITION_CONTEXT('part definition',#330,'design');
#326=PRODUCT_DEFINITION('Morini 500 Bremse Bolzen',
'Morini 500 Bremse Bolzen',#327,#325);
#327=PRODUCT_DEFINITION_FORMATION('',$,#332);
#328=PRODUCT_RELATED_PRODUCT_CATEGORY('Morini 500 Bremse Bolzen',
'Morini 500 Bremse Bolzen',(#332));
#329=APPLICATION_PROTOCOL_DEFINITION('international standard',
'automotive_design',2009,#330);
#330=APPLICATION_CONTEXT(
'Core Data for Automotive Mechanical Design Process');
#331=PRODUCT_CONTEXT('part definition',#330,'mechanical');
#332=PRODUCT('Morini 500 Bremse Bolzen','Morini 500 Bremse Bolzen',$,(#331));
#333=PRESENTATION_STYLE_ASSIGNMENT((#334));
#334=SURFACE_STYLE_USAGE(.BOTH.,#335);
#335=SURFACE_SIDE_STYLE('',(#336));
#336=SURFACE_STYLE_FILL_AREA(#337);
#337=FILL_AREA_STYLE('',(#338));
#338=FILL_AREA_STYLE_COLOUR('',#339);
#339=COLOUR_RGB('',0.745098039215686,0.737254901960784,0.729411764705882);
ENDSEC;
END-ISO-10303-21;
