ISO-10303-21;
HEADER;
/* Generated by software containing ST-Developer
 * from STEP Tools, Inc. (www.steptools.com) 
 */

FILE_DESCRIPTION(
/* description */ (''),
/* implementation_level */ '2;1');

FILE_NAME(
/* name */ 
'C:\\Users\\mfr\\Desktop\\mediatektur\\Morini 500 Spezialschraube Brem
ssattel vorne.stp',
/* time_stamp */ '2020-04-13T21:01:53+02:00',
/* author */ ('mfr'),
/* organization */ ('TraceParts S.A.'),
/* preprocessor_version */ 'ST-DEVELOPER v16.5',
/* originating_system */ 'Autodesk Inventor 2017',
/* authorisation */ '');

FILE_SCHEMA (('AUTOMOTIVE_DESIGN { 1 0 10303 214 3 1 1 }'));
ENDSEC;

DATA;
#10=MECHANICAL_DESIGN_GEOMETRIC_PRESENTATION_REPRESENTATION('',(#13),#443);
#11=SHAPE_REPRESENTATION_RELATIONSHIP('SRR','None',#452,#12);
#12=ADVANCED_BREP_SHAPE_REPRESENTATION('',(#14),#442);
#13=STYLED_ITEM('',(#461),#14);
#14=MANIFOLD_SOLID_BREP('Solid1',#259);
#15=LINE('',#401,#33);
#16=LINE('',#403,#34);
#17=LINE('',#405,#35);
#18=LINE('',#407,#36);
#19=LINE('',#409,#37);
#20=LINE('',#410,#38);
#21=LINE('',#413,#39);
#22=LINE('',#415,#40);
#23=LINE('',#416,#41);
#24=LINE('',#419,#42);
#25=LINE('',#420,#43);
#26=LINE('',#423,#44);
#27=LINE('',#424,#45);
#28=LINE('',#428,#46);
#29=LINE('',#429,#47);
#30=LINE('',#432,#48);
#31=LINE('',#433,#49);
#32=LINE('',#435,#50);
#33=VECTOR('',#333,1000.);
#34=VECTOR('',#334,1000.);
#35=VECTOR('',#335,1000.);
#36=VECTOR('',#336,1000.);
#37=VECTOR('',#337,1000.);
#38=VECTOR('',#338,1000.);
#39=VECTOR('',#341,1000.);
#40=VECTOR('',#342,1000.);
#41=VECTOR('',#343,1000.);
#42=VECTOR('',#346,1000.);
#43=VECTOR('',#347,1000.);
#44=VECTOR('',#350,1000.);
#45=VECTOR('',#351,1000.);
#46=VECTOR('',#356,1000.);
#47=VECTOR('',#357,1000.);
#48=VECTOR('',#360,1000.);
#49=VECTOR('',#361,1000.);
#50=VECTOR('',#364,1000.);
#51=PLANE('',#272);
#52=PLANE('',#273);
#53=PLANE('',#280);
#54=PLANE('',#284);
#55=PLANE('',#285);
#56=PLANE('',#286);
#57=PLANE('',#287);
#58=PLANE('',#289);
#59=PLANE('',#290);
#60=PLANE('',#291);
#61=PLANE('',#292);
#62=CYLINDRICAL_SURFACE('',#270,4.);
#63=CYLINDRICAL_SURFACE('',#278,8.);
#64=CYLINDRICAL_SURFACE('',#288,5.);
#65=FACE_BOUND('',#94,.T.);
#66=FACE_BOUND('',#96,.T.);
#67=FACE_BOUND('',#99,.T.);
#68=FACE_BOUND('',#101,.T.);
#69=FACE_BOUND('',#103,.T.);
#70=FACE_BOUND('',#105,.T.);
#71=FACE_BOUND('',#107,.T.);
#72=FACE_BOUND('',#109,.T.);
#73=FACE_BOUND('',#114,.T.);
#74=FACE_BOUND('',#119,.T.);
#75=FACE_OUTER_BOUND('',#93,.T.);
#76=FACE_OUTER_BOUND('',#95,.T.);
#77=FACE_OUTER_BOUND('',#97,.T.);
#78=FACE_OUTER_BOUND('',#98,.T.);
#79=FACE_OUTER_BOUND('',#100,.T.);
#80=FACE_OUTER_BOUND('',#102,.T.);
#81=FACE_OUTER_BOUND('',#104,.T.);
#82=FACE_OUTER_BOUND('',#106,.T.);
#83=FACE_OUTER_BOUND('',#108,.T.);
#84=FACE_OUTER_BOUND('',#110,.T.);
#85=FACE_OUTER_BOUND('',#111,.T.);
#86=FACE_OUTER_BOUND('',#112,.T.);
#87=FACE_OUTER_BOUND('',#113,.T.);
#88=FACE_OUTER_BOUND('',#115,.T.);
#89=FACE_OUTER_BOUND('',#116,.T.);
#90=FACE_OUTER_BOUND('',#117,.T.);
#91=FACE_OUTER_BOUND('',#118,.T.);
#92=FACE_OUTER_BOUND('',#120,.T.);
#93=EDGE_LOOP('',(#181));
#94=EDGE_LOOP('',(#182));
#95=EDGE_LOOP('',(#183));
#96=EDGE_LOOP('',(#184));
#97=EDGE_LOOP('',(#185));
#98=EDGE_LOOP('',(#186));
#99=EDGE_LOOP('',(#187));
#100=EDGE_LOOP('',(#188));
#101=EDGE_LOOP('',(#189));
#102=EDGE_LOOP('',(#190));
#103=EDGE_LOOP('',(#191));
#104=EDGE_LOOP('',(#192));
#105=EDGE_LOOP('',(#193));
#106=EDGE_LOOP('',(#194));
#107=EDGE_LOOP('',(#195));
#108=EDGE_LOOP('',(#196));
#109=EDGE_LOOP('',(#197,#198,#199,#200,#201,#202));
#110=EDGE_LOOP('',(#203,#204,#205,#206));
#111=EDGE_LOOP('',(#207,#208,#209,#210));
#112=EDGE_LOOP('',(#211,#212,#213,#214));
#113=EDGE_LOOP('',(#215));
#114=EDGE_LOOP('',(#216));
#115=EDGE_LOOP('',(#217,#218,#219,#220));
#116=EDGE_LOOP('',(#221,#222,#223,#224));
#117=EDGE_LOOP('',(#225,#226,#227,#228));
#118=EDGE_LOOP('',(#229,#230,#231,#232,#233,#234));
#119=EDGE_LOOP('',(#235));
#120=EDGE_LOOP('',(#236));
#121=CIRCLE('',#268,4.);
#122=CIRCLE('',#269,3.6);
#123=CIRCLE('',#271,4.);
#124=CIRCLE('',#274,5.);
#125=CIRCLE('',#276,8.);
#126=CIRCLE('',#277,7.8);
#127=CIRCLE('',#279,8.);
#128=CIRCLE('',#281,5.);
#129=CIRCLE('',#283,7.8);
#130=CIRCLE('',#293,3.99);
#131=VERTEX_POINT('',#373);
#132=VERTEX_POINT('',#375);
#133=VERTEX_POINT('',#378);
#134=VERTEX_POINT('',#382);
#135=VERTEX_POINT('',#385);
#136=VERTEX_POINT('',#387);
#137=VERTEX_POINT('',#390);
#138=VERTEX_POINT('',#393);
#139=VERTEX_POINT('',#396);
#140=VERTEX_POINT('',#399);
#141=VERTEX_POINT('',#400);
#142=VERTEX_POINT('',#402);
#143=VERTEX_POINT('',#404);
#144=VERTEX_POINT('',#406);
#145=VERTEX_POINT('',#408);
#146=VERTEX_POINT('',#412);
#147=VERTEX_POINT('',#414);
#148=VERTEX_POINT('',#418);
#149=VERTEX_POINT('',#422);
#150=VERTEX_POINT('',#427);
#151=VERTEX_POINT('',#431);
#152=VERTEX_POINT('',#437);
#153=EDGE_CURVE('',#131,#131,#121,.T.);
#154=EDGE_CURVE('',#132,#132,#122,.T.);
#155=EDGE_CURVE('',#133,#133,#123,.T.);
#156=EDGE_CURVE('',#134,#134,#124,.T.);
#157=EDGE_CURVE('',#135,#135,#125,.T.);
#158=EDGE_CURVE('',#136,#136,#126,.T.);
#159=EDGE_CURVE('',#137,#137,#127,.T.);
#160=EDGE_CURVE('',#138,#138,#128,.T.);
#161=EDGE_CURVE('',#139,#139,#129,.T.);
#162=EDGE_CURVE('',#140,#141,#15,.T.);
#163=EDGE_CURVE('',#141,#142,#16,.T.);
#164=EDGE_CURVE('',#142,#143,#17,.T.);
#165=EDGE_CURVE('',#143,#144,#18,.T.);
#166=EDGE_CURVE('',#144,#145,#19,.T.);
#167=EDGE_CURVE('',#145,#140,#20,.T.);
#168=EDGE_CURVE('',#146,#141,#21,.T.);
#169=EDGE_CURVE('',#146,#147,#22,.T.);
#170=EDGE_CURVE('',#147,#142,#23,.T.);
#171=EDGE_CURVE('',#147,#148,#24,.T.);
#172=EDGE_CURVE('',#148,#143,#25,.T.);
#173=EDGE_CURVE('',#149,#140,#26,.T.);
#174=EDGE_CURVE('',#149,#146,#27,.T.);
#175=EDGE_CURVE('',#148,#150,#28,.T.);
#176=EDGE_CURVE('',#150,#144,#29,.T.);
#177=EDGE_CURVE('',#150,#151,#30,.T.);
#178=EDGE_CURVE('',#151,#145,#31,.T.);
#179=EDGE_CURVE('',#151,#149,#32,.T.);
#180=EDGE_CURVE('',#152,#152,#130,.T.);
#181=ORIENTED_EDGE('',*,*,#153,.T.);
#182=ORIENTED_EDGE('',*,*,#154,.T.);
#183=ORIENTED_EDGE('',*,*,#155,.T.);
#184=ORIENTED_EDGE('',*,*,#153,.F.);
#185=ORIENTED_EDGE('',*,*,#154,.F.);
#186=ORIENTED_EDGE('',*,*,#156,.F.);
#187=ORIENTED_EDGE('',*,*,#155,.F.);
#188=ORIENTED_EDGE('',*,*,#157,.T.);
#189=ORIENTED_EDGE('',*,*,#158,.T.);
#190=ORIENTED_EDGE('',*,*,#159,.F.);
#191=ORIENTED_EDGE('',*,*,#157,.F.);
#192=ORIENTED_EDGE('',*,*,#158,.F.);
#193=ORIENTED_EDGE('',*,*,#160,.F.);
#194=ORIENTED_EDGE('',*,*,#161,.T.);
#195=ORIENTED_EDGE('',*,*,#159,.T.);
#196=ORIENTED_EDGE('',*,*,#161,.F.);
#197=ORIENTED_EDGE('',*,*,#162,.T.);
#198=ORIENTED_EDGE('',*,*,#163,.T.);
#199=ORIENTED_EDGE('',*,*,#164,.T.);
#200=ORIENTED_EDGE('',*,*,#165,.T.);
#201=ORIENTED_EDGE('',*,*,#166,.T.);
#202=ORIENTED_EDGE('',*,*,#167,.T.);
#203=ORIENTED_EDGE('',*,*,#163,.F.);
#204=ORIENTED_EDGE('',*,*,#168,.F.);
#205=ORIENTED_EDGE('',*,*,#169,.T.);
#206=ORIENTED_EDGE('',*,*,#170,.T.);
#207=ORIENTED_EDGE('',*,*,#164,.F.);
#208=ORIENTED_EDGE('',*,*,#170,.F.);
#209=ORIENTED_EDGE('',*,*,#171,.T.);
#210=ORIENTED_EDGE('',*,*,#172,.T.);
#211=ORIENTED_EDGE('',*,*,#162,.F.);
#212=ORIENTED_EDGE('',*,*,#173,.F.);
#213=ORIENTED_EDGE('',*,*,#174,.T.);
#214=ORIENTED_EDGE('',*,*,#168,.T.);
#215=ORIENTED_EDGE('',*,*,#156,.T.);
#216=ORIENTED_EDGE('',*,*,#160,.T.);
#217=ORIENTED_EDGE('',*,*,#165,.F.);
#218=ORIENTED_EDGE('',*,*,#172,.F.);
#219=ORIENTED_EDGE('',*,*,#175,.T.);
#220=ORIENTED_EDGE('',*,*,#176,.T.);
#221=ORIENTED_EDGE('',*,*,#166,.F.);
#222=ORIENTED_EDGE('',*,*,#176,.F.);
#223=ORIENTED_EDGE('',*,*,#177,.T.);
#224=ORIENTED_EDGE('',*,*,#178,.T.);
#225=ORIENTED_EDGE('',*,*,#167,.F.);
#226=ORIENTED_EDGE('',*,*,#178,.F.);
#227=ORIENTED_EDGE('',*,*,#179,.T.);
#228=ORIENTED_EDGE('',*,*,#173,.T.);
#229=ORIENTED_EDGE('',*,*,#174,.F.);
#230=ORIENTED_EDGE('',*,*,#179,.F.);
#231=ORIENTED_EDGE('',*,*,#177,.F.);
#232=ORIENTED_EDGE('',*,*,#175,.F.);
#233=ORIENTED_EDGE('',*,*,#171,.F.);
#234=ORIENTED_EDGE('',*,*,#169,.F.);
#235=ORIENTED_EDGE('',*,*,#180,.T.);
#236=ORIENTED_EDGE('',*,*,#180,.F.);
#237=CONICAL_SURFACE('',#267,3.8,45.);
#238=CONICAL_SURFACE('',#275,7.9,45.0000000000006);
#239=CONICAL_SURFACE('',#282,7.9,44.9999999999978);
#240=CONICAL_SURFACE('',#294,3.99,60.0000000000001);
#241=ADVANCED_FACE('',(#75,#65),#237,.T.);
#242=ADVANCED_FACE('',(#76,#66),#62,.T.);
#243=ADVANCED_FACE('',(#77),#51,.F.);
#244=ADVANCED_FACE('',(#78,#67),#52,.T.);
#245=ADVANCED_FACE('',(#79,#68),#238,.T.);
#246=ADVANCED_FACE('',(#80,#69),#63,.T.);
#247=ADVANCED_FACE('',(#81,#70),#53,.F.);
#248=ADVANCED_FACE('',(#82,#71),#239,.T.);
#249=ADVANCED_FACE('',(#83,#72),#54,.F.);
#250=ADVANCED_FACE('',(#84),#55,.T.);
#251=ADVANCED_FACE('',(#85),#56,.T.);
#252=ADVANCED_FACE('',(#86),#57,.T.);
#253=ADVANCED_FACE('',(#87,#73),#64,.T.);
#254=ADVANCED_FACE('',(#88),#58,.T.);
#255=ADVANCED_FACE('',(#89),#59,.T.);
#256=ADVANCED_FACE('',(#90),#60,.T.);
#257=ADVANCED_FACE('',(#91,#74),#61,.F.);
#258=ADVANCED_FACE('',(#92),#240,.F.);
#259=CLOSED_SHELL('',(#241,#242,#243,#244,#245,#246,#247,#248,#249,#250,
#251,#252,#253,#254,#255,#256,#257,#258));
#260=DATE_TIME_ROLE('creation_date');
#261=APPLIED_DATE_AND_TIME_ASSIGNMENT(#262,#260,(#454));
#262=DATE_AND_TIME(#263,#264);
#263=CALENDAR_DATE(2020,13,4);
#264=LOCAL_TIME(18,46,0.,#265);
#265=COORDINATED_UNIVERSAL_TIME_OFFSET(0,0,.BEHIND.);
#266=AXIS2_PLACEMENT_3D('placement',#371,#295,#296);
#267=AXIS2_PLACEMENT_3D('',#372,#297,#298);
#268=AXIS2_PLACEMENT_3D('',#374,#299,#300);
#269=AXIS2_PLACEMENT_3D('',#376,#301,#302);
#270=AXIS2_PLACEMENT_3D('',#377,#303,#304);
#271=AXIS2_PLACEMENT_3D('',#379,#305,#306);
#272=AXIS2_PLACEMENT_3D('',#380,#307,#308);
#273=AXIS2_PLACEMENT_3D('',#381,#309,#310);
#274=AXIS2_PLACEMENT_3D('',#383,#311,#312);
#275=AXIS2_PLACEMENT_3D('',#384,#313,#314);
#276=AXIS2_PLACEMENT_3D('',#386,#315,#316);
#277=AXIS2_PLACEMENT_3D('',#388,#317,#318);
#278=AXIS2_PLACEMENT_3D('',#389,#319,#320);
#279=AXIS2_PLACEMENT_3D('',#391,#321,#322);
#280=AXIS2_PLACEMENT_3D('',#392,#323,#324);
#281=AXIS2_PLACEMENT_3D('',#394,#325,#326);
#282=AXIS2_PLACEMENT_3D('',#395,#327,#328);
#283=AXIS2_PLACEMENT_3D('',#397,#329,#330);
#284=AXIS2_PLACEMENT_3D('',#398,#331,#332);
#285=AXIS2_PLACEMENT_3D('',#411,#339,#340);
#286=AXIS2_PLACEMENT_3D('',#417,#344,#345);
#287=AXIS2_PLACEMENT_3D('',#421,#348,#349);
#288=AXIS2_PLACEMENT_3D('',#425,#352,#353);
#289=AXIS2_PLACEMENT_3D('',#426,#354,#355);
#290=AXIS2_PLACEMENT_3D('',#430,#358,#359);
#291=AXIS2_PLACEMENT_3D('',#434,#362,#363);
#292=AXIS2_PLACEMENT_3D('',#436,#365,#366);
#293=AXIS2_PLACEMENT_3D('',#438,#367,#368);
#294=AXIS2_PLACEMENT_3D('',#439,#369,#370);
#295=DIRECTION('axis',(0.,0.,1.));
#296=DIRECTION('refdir',(1.,0.,0.));
#297=DIRECTION('center_axis',(-1.,0.,0.));
#298=DIRECTION('ref_axis',(0.,0.,1.));
#299=DIRECTION('center_axis',(1.,0.,0.));
#300=DIRECTION('ref_axis',(0.,0.,1.));
#301=DIRECTION('center_axis',(-1.,0.,0.));
#302=DIRECTION('ref_axis',(0.,0.,1.));
#303=DIRECTION('center_axis',(-1.,0.,0.));
#304=DIRECTION('ref_axis',(0.,0.,1.));
#305=DIRECTION('center_axis',(1.,0.,0.));
#306=DIRECTION('ref_axis',(0.,0.,1.));
#307=DIRECTION('center_axis',(-1.,0.,0.));
#308=DIRECTION('ref_axis',(0.,0.,1.));
#309=DIRECTION('center_axis',(1.,0.,0.));
#310=DIRECTION('ref_axis',(0.,0.,-1.));
#311=DIRECTION('center_axis',(-1.,0.,0.));
#312=DIRECTION('ref_axis',(0.,0.,-1.));
#313=DIRECTION('center_axis',(-1.,0.,0.));
#314=DIRECTION('ref_axis',(0.,0.,1.));
#315=DIRECTION('center_axis',(1.,0.,0.));
#316=DIRECTION('ref_axis',(0.,0.,1.));
#317=DIRECTION('center_axis',(-1.,0.,0.));
#318=DIRECTION('ref_axis',(0.,0.,1.));
#319=DIRECTION('center_axis',(1.,0.,0.));
#320=DIRECTION('ref_axis',(0.,0.,-1.));
#321=DIRECTION('center_axis',(-1.,0.,0.));
#322=DIRECTION('ref_axis',(0.,0.,1.));
#323=DIRECTION('center_axis',(-1.,0.,0.));
#324=DIRECTION('ref_axis',(0.,0.,1.));
#325=DIRECTION('center_axis',(1.,0.,0.));
#326=DIRECTION('ref_axis',(0.,0.,-1.));
#327=DIRECTION('center_axis',(1.,0.,0.));
#328=DIRECTION('ref_axis',(0.,0.,1.));
#329=DIRECTION('center_axis',(1.,0.,0.));
#330=DIRECTION('ref_axis',(0.,0.,1.));
#331=DIRECTION('center_axis',(1.,0.,0.));
#332=DIRECTION('ref_axis',(0.,1.,0.));
#333=DIRECTION('',(0.,-1.,0.));
#334=DIRECTION('',(0.,-0.5,-0.866025403784439));
#335=DIRECTION('',(0.,0.5,-0.866025403784439));
#336=DIRECTION('',(0.,1.,0.));
#337=DIRECTION('',(0.,0.5,0.866025403784439));
#338=DIRECTION('',(0.,-0.5,0.866025403784439));
#339=DIRECTION('center_axis',(0.,0.866025403784439,-0.5));
#340=DIRECTION('ref_axis',(-1.,0.,0.));
#341=DIRECTION('',(-1.,0.,0.));
#342=DIRECTION('',(0.,-0.5,-0.866025403784439));
#343=DIRECTION('',(-1.,0.,0.));
#344=DIRECTION('center_axis',(0.,0.866025403784439,0.5));
#345=DIRECTION('ref_axis',(1.,0.,0.));
#346=DIRECTION('',(0.,0.5,-0.866025403784439));
#347=DIRECTION('',(-1.,0.,0.));
#348=DIRECTION('center_axis',(0.,0.,-1.));
#349=DIRECTION('ref_axis',(0.,-1.,0.));
#350=DIRECTION('',(-1.,0.,0.));
#351=DIRECTION('',(0.,-1.,0.));
#352=DIRECTION('center_axis',(1.,0.,0.));
#353=DIRECTION('ref_axis',(0.,0.,-1.));
#354=DIRECTION('center_axis',(0.,0.,1.));
#355=DIRECTION('ref_axis',(1.,0.,0.));
#356=DIRECTION('',(0.,1.,0.));
#357=DIRECTION('',(-1.,0.,0.));
#358=DIRECTION('center_axis',(0.,-0.866025403784439,0.5));
#359=DIRECTION('ref_axis',(-1.,0.,0.));
#360=DIRECTION('',(0.,0.5,0.866025403784439));
#361=DIRECTION('',(-1.,0.,0.));
#362=DIRECTION('center_axis',(0.,-0.866025403784439,-0.5));
#363=DIRECTION('ref_axis',(0.,0.5,-0.866025403784439));
#364=DIRECTION('',(0.,-0.5,0.866025403784439));
#365=DIRECTION('center_axis',(1.,0.,0.));
#366=DIRECTION('ref_axis',(0.,1.,0.));
#367=DIRECTION('center_axis',(1.,1.92778214173791E-16,0.));
#368=DIRECTION('ref_axis',(-1.92778214173791E-16,1.,0.));
#369=DIRECTION('center_axis',(-1.,-1.92778214173791E-16,0.));
#370=DIRECTION('ref_axis',(1.92778214173791E-16,-1.,0.));
#371=CARTESIAN_POINT('',(0.,0.,0.));
#372=CARTESIAN_POINT('Origin',(69.8,0.,0.));
#373=CARTESIAN_POINT('',(69.6,4.89858719658941E-16,-4.));
#374=CARTESIAN_POINT('Origin',(69.6,0.,0.));
#375=CARTESIAN_POINT('',(70.,-4.40872847693047E-16,-3.6));
#376=CARTESIAN_POINT('Origin',(70.,0.,0.));
#377=CARTESIAN_POINT('Origin',(70.,0.,0.));
#378=CARTESIAN_POINT('',(25.,4.89858719658941E-16,-4.));
#379=CARTESIAN_POINT('Origin',(25.,0.,0.));
#380=CARTESIAN_POINT('Origin',(70.,4.08,0.));
#381=CARTESIAN_POINT('Origin',(25.,0.,2.16614542506378E-16));
#382=CARTESIAN_POINT('',(25.,6.12323399573677E-16,5.));
#383=CARTESIAN_POINT('Origin',(25.,0.,0.));
#384=CARTESIAN_POINT('Origin',(-0.0999999999999979,0.,0.));
#385=CARTESIAN_POINT('',(-0.199999999999996,9.79717439317883E-16,-8.));
#386=CARTESIAN_POINT('Origin',(-0.199999999999996,0.,0.));
#387=CARTESIAN_POINT('',(0.,-9.55224503334936E-16,-7.8));
#388=CARTESIAN_POINT('Origin',(0.,0.,0.));
#389=CARTESIAN_POINT('Origin',(70.,0.,0.));
#390=CARTESIAN_POINT('',(-9.79999999999999,-9.79717439317883E-16,-8.));
#391=CARTESIAN_POINT('Origin',(-9.79999999999999,0.,0.));
#392=CARTESIAN_POINT('Origin',(0.,8.,0.));
#393=CARTESIAN_POINT('',(0.,0.,-5.));
#394=CARTESIAN_POINT('Origin',(0.,0.,0.));
#395=CARTESIAN_POINT('Origin',(-9.9,0.,0.));
#396=CARTESIAN_POINT('',(-10.,9.55224503334936E-16,-7.8));
#397=CARTESIAN_POINT('Origin',(-10.,0.,0.));
#398=CARTESIAN_POINT('Origin',(-10.,0.,0.));
#399=CARTESIAN_POINT('',(-10.,2.3094010767585,4.));
#400=CARTESIAN_POINT('',(-10.,-2.3094010767585,4.));
#401=CARTESIAN_POINT('',(-10.,2.3094010767585,4.));
#402=CARTESIAN_POINT('',(-10.,-4.61880215351701,0.));
#403=CARTESIAN_POINT('',(-10.,-2.3094010767585,4.));
#404=CARTESIAN_POINT('',(-10.,-2.3094010767585,-4.));
#405=CARTESIAN_POINT('',(-10.,-4.61880215351701,0.));
#406=CARTESIAN_POINT('',(-10.,2.3094010767585,-4.));
#407=CARTESIAN_POINT('',(-10.,-2.3094010767585,-4.));
#408=CARTESIAN_POINT('',(-10.,4.61880215351701,0.));
#409=CARTESIAN_POINT('',(-10.,2.3094010767585,-4.));
#410=CARTESIAN_POINT('',(-10.,4.61880215351701,0.));
#411=CARTESIAN_POINT('Origin',(-5.,-2.3094010767585,4.));
#412=CARTESIAN_POINT('',(-5.,-2.3094010767585,4.));
#413=CARTESIAN_POINT('',(-5.,-2.3094010767585,4.));
#414=CARTESIAN_POINT('',(-5.,-4.61880215351701,0.));
#415=CARTESIAN_POINT('',(-5.,-2.3094010767585,4.));
#416=CARTESIAN_POINT('',(-5.,-4.61880215351701,0.));
#417=CARTESIAN_POINT('Origin',(-5.,-4.61880215351701,0.));
#418=CARTESIAN_POINT('',(-5.,-2.3094010767585,-4.));
#419=CARTESIAN_POINT('',(-5.,-4.61880215351701,0.));
#420=CARTESIAN_POINT('',(-5.,-2.3094010767585,-4.));
#421=CARTESIAN_POINT('Origin',(-5.,2.3094010767585,4.));
#422=CARTESIAN_POINT('',(-5.,2.3094010767585,4.));
#423=CARTESIAN_POINT('',(-5.,2.3094010767585,4.));
#424=CARTESIAN_POINT('',(-5.,2.3094010767585,4.));
#425=CARTESIAN_POINT('Origin',(70.,0.,0.));
#426=CARTESIAN_POINT('Origin',(-5.,-2.3094010767585,-4.));
#427=CARTESIAN_POINT('',(-5.,2.3094010767585,-4.));
#428=CARTESIAN_POINT('',(-5.,-2.3094010767585,-4.));
#429=CARTESIAN_POINT('',(-5.,2.3094010767585,-4.));
#430=CARTESIAN_POINT('Origin',(-5.,2.3094010767585,-4.));
#431=CARTESIAN_POINT('',(-5.,4.61880215351701,0.));
#432=CARTESIAN_POINT('',(-5.,2.3094010767585,-4.));
#433=CARTESIAN_POINT('',(-5.,4.61880215351701,0.));
#434=CARTESIAN_POINT('Origin',(-5.,4.61880215351701,0.));
#435=CARTESIAN_POINT('',(-5.,4.61880215351701,0.));
#436=CARTESIAN_POINT('Origin',(-5.,0.,0.));
#437=CARTESIAN_POINT('',(-5.,3.99,0.));
#438=CARTESIAN_POINT('Origin',(-5.,1.92592994438724E-31,0.));
#439=CARTESIAN_POINT('Origin',(-5.,1.92592994438724E-31,0.));
#440=UNCERTAINTY_MEASURE_WITH_UNIT(LENGTH_MEASURE(0.01),#444,
'DISTANCE_ACCURACY_VALUE',
'Maximum model space distance between geometric entities at asserted c
onnectivities');
#441=UNCERTAINTY_MEASURE_WITH_UNIT(LENGTH_MEASURE(1.E-6),#444,
'DISTANCE_ACCURACY_VALUE',
'Maximum model space distance between geometric entities at asserted c
onnectivities');
#442=(
GEOMETRIC_REPRESENTATION_CONTEXT(3)
GLOBAL_UNCERTAINTY_ASSIGNED_CONTEXT((#440))
GLOBAL_UNIT_ASSIGNED_CONTEXT((#444,#447,#445))
REPRESENTATION_CONTEXT('','3D')
);
#443=(
GEOMETRIC_REPRESENTATION_CONTEXT(3)
GLOBAL_UNCERTAINTY_ASSIGNED_CONTEXT((#441))
GLOBAL_UNIT_ASSIGNED_CONTEXT((#444,#447,#445))
REPRESENTATION_CONTEXT('','3D')
);
#444=(
LENGTH_UNIT()
NAMED_UNIT(*)
SI_UNIT(.MILLI.,.METRE.)
);
#445=(
NAMED_UNIT(*)
SI_UNIT($,.STERADIAN.)
SOLID_ANGLE_UNIT()
);
#446=DIMENSIONAL_EXPONENTS(0.,0.,0.,0.,0.,0.,0.);
#447=(
CONVERSION_BASED_UNIT('degree',#449)
NAMED_UNIT(#446)
PLANE_ANGLE_UNIT()
);
#448=(
NAMED_UNIT(*)
PLANE_ANGLE_UNIT()
SI_UNIT($,.RADIAN.)
);
#449=PLANE_ANGLE_MEASURE_WITH_UNIT(PLANE_ANGLE_MEASURE(0.01745329252),#448);
#450=SHAPE_DEFINITION_REPRESENTATION(#451,#452);
#451=PRODUCT_DEFINITION_SHAPE('',$,#454);
#452=SHAPE_REPRESENTATION('',(#266),#442);
#453=PRODUCT_DEFINITION_CONTEXT('part definition',#458,'design');
#454=PRODUCT_DEFINITION('Morini 500 Spezialschraube Bremssattel vorne',
'Morini 500 Spezialschraube Bremssattel vorne',#455,#453);
#455=PRODUCT_DEFINITION_FORMATION('',$,#460);
#456=PRODUCT_RELATED_PRODUCT_CATEGORY(
'Morini 500 Spezialschraube Bremssattel vorne',
'Morini 500 Spezialschraube Bremssattel vorne',(#460));
#457=APPLICATION_PROTOCOL_DEFINITION('international standard',
'automotive_design',2009,#458);
#458=APPLICATION_CONTEXT(
'Core Data for Automotive Mechanical Design Process');
#459=PRODUCT_CONTEXT('part definition',#458,'mechanical');
#460=PRODUCT('Morini 500 Spezialschraube Bremssattel vorne',
'Morini 500 Spezialschraube Bremssattel vorne',$,(#459));
#461=PRESENTATION_STYLE_ASSIGNMENT((#462));
#462=SURFACE_STYLE_USAGE(.BOTH.,#463);
#463=SURFACE_SIDE_STYLE('',(#464));
#464=SURFACE_STYLE_FILL_AREA(#465);
#465=FILL_AREA_STYLE('',(#466));
#466=FILL_AREA_STYLE_COLOUR('',#467);
#467=COLOUR_RGB('',0.745098039215686,0.737254901960784,0.729411764705882);
ENDSEC;
END-ISO-10303-21;
