ISO-10303-21;
HEADER;
/* Generated by software containing ST-Developer
 * from STEP Tools, Inc. (www.steptools.com) 
 */

FILE_DESCRIPTION(
/* description */ (''),
/* implementation_level */ '2;1');

FILE_NAME(
/* name */ 
'C:\\Users\\mfr\\Desktop\\mediatektur\\Morini Distanzbolzen Seitendeck
el links.stp',
/* time_stamp */ '2020-05-26T09:13:13+02:00',
/* author */ ('mfr'),
/* organization */ (''),
/* preprocessor_version */ 'ST-DEVELOPER v16.5',
/* originating_system */ 'Autodesk Inventor 2017',
/* authorisation */ '');

FILE_SCHEMA (('AUTOMOTIVE_DESIGN { 1 0 10303 214 3 1 1 }'));
ENDSEC;

DATA;
#10=MECHANICAL_DESIGN_GEOMETRIC_PRESENTATION_REPRESENTATION('',(#13),#483);
#11=SHAPE_REPRESENTATION_RELATIONSHIP('SRR','None',#492,#12);
#12=ADVANCED_BREP_SHAPE_REPRESENTATION('',(#14),#482);
#13=STYLED_ITEM('',(#501),#14);
#14=MANIFOLD_SOLID_BREP('Volumenk\X\F6rper1',#281);
#15=LINE('',#445,#33);
#16=LINE('',#447,#34);
#17=LINE('',#449,#35);
#18=LINE('',#450,#36);
#19=LINE('',#453,#37);
#20=LINE('',#455,#38);
#21=LINE('',#456,#39);
#22=LINE('',#459,#40);
#23=LINE('',#461,#41);
#24=LINE('',#462,#42);
#25=LINE('',#465,#43);
#26=LINE('',#467,#44);
#27=LINE('',#468,#45);
#28=LINE('',#471,#46);
#29=LINE('',#473,#47);
#30=LINE('',#474,#48);
#31=LINE('',#476,#49);
#32=LINE('',#477,#50);
#33=VECTOR('',#373,10.);
#34=VECTOR('',#374,10.);
#35=VECTOR('',#375,10.);
#36=VECTOR('',#376,10.);
#37=VECTOR('',#379,10.);
#38=VECTOR('',#380,10.);
#39=VECTOR('',#381,10.);
#40=VECTOR('',#384,10.);
#41=VECTOR('',#385,10.);
#42=VECTOR('',#386,10.);
#43=VECTOR('',#389,10.);
#44=VECTOR('',#390,10.);
#45=VECTOR('',#391,10.);
#46=VECTOR('',#394,10.);
#47=VECTOR('',#395,10.);
#48=VECTOR('',#396,10.);
#49=VECTOR('',#399,10.);
#50=VECTOR('',#400,10.);
#51=PLANE('',#302);
#52=PLANE('',#305);
#53=PLANE('',#312);
#54=PLANE('',#313);
#55=PLANE('',#314);
#56=PLANE('',#315);
#57=PLANE('',#316);
#58=PLANE('',#317);
#59=PLANE('',#318);
#60=PLANE('',#319);
#61=PLANE('',#320);
#62=FACE_BOUND('',#101,.T.);
#63=FACE_BOUND('',#103,.T.);
#64=FACE_BOUND('',#105,.T.);
#65=FACE_BOUND('',#107,.T.);
#66=FACE_BOUND('',#109,.T.);
#67=FACE_BOUND('',#112,.T.);
#68=FACE_BOUND('',#114,.T.);
#69=FACE_BOUND('',#116,.T.);
#70=FACE_BOUND('',#118,.T.);
#71=FACE_BOUND('',#120,.T.);
#72=FACE_BOUND('',#128,.T.);
#73=FACE_BOUND('',#130,.T.);
#74=CYLINDRICAL_SURFACE('',#291,2.5);
#75=CYLINDRICAL_SURFACE('',#295,3.65);
#76=CYLINDRICAL_SURFACE('',#300,3.);
#77=CYLINDRICAL_SURFACE('',#307,6.7);
#78=CYLINDRICAL_SURFACE('',#309,6.375);
#79=FACE_OUTER_BOUND('',#99,.T.);
#80=FACE_OUTER_BOUND('',#100,.T.);
#81=FACE_OUTER_BOUND('',#102,.T.);
#82=FACE_OUTER_BOUND('',#104,.T.);
#83=FACE_OUTER_BOUND('',#106,.T.);
#84=FACE_OUTER_BOUND('',#108,.T.);
#85=FACE_OUTER_BOUND('',#110,.T.);
#86=FACE_OUTER_BOUND('',#111,.T.);
#87=FACE_OUTER_BOUND('',#113,.T.);
#88=FACE_OUTER_BOUND('',#115,.T.);
#89=FACE_OUTER_BOUND('',#117,.T.);
#90=FACE_OUTER_BOUND('',#119,.T.);
#91=FACE_OUTER_BOUND('',#121,.T.);
#92=FACE_OUTER_BOUND('',#122,.T.);
#93=FACE_OUTER_BOUND('',#123,.T.);
#94=FACE_OUTER_BOUND('',#124,.T.);
#95=FACE_OUTER_BOUND('',#125,.T.);
#96=FACE_OUTER_BOUND('',#126,.T.);
#97=FACE_OUTER_BOUND('',#127,.T.);
#98=FACE_OUTER_BOUND('',#129,.T.);
#99=EDGE_LOOP('',(#197));
#100=EDGE_LOOP('',(#198));
#101=EDGE_LOOP('',(#199));
#102=EDGE_LOOP('',(#200));
#103=EDGE_LOOP('',(#201));
#104=EDGE_LOOP('',(#202));
#105=EDGE_LOOP('',(#203));
#106=EDGE_LOOP('',(#204));
#107=EDGE_LOOP('',(#205));
#108=EDGE_LOOP('',(#206));
#109=EDGE_LOOP('',(#207));
#110=EDGE_LOOP('',(#208));
#111=EDGE_LOOP('',(#209));
#112=EDGE_LOOP('',(#210));
#113=EDGE_LOOP('',(#211));
#114=EDGE_LOOP('',(#212));
#115=EDGE_LOOP('',(#213));
#116=EDGE_LOOP('',(#214));
#117=EDGE_LOOP('',(#215));
#118=EDGE_LOOP('',(#216));
#119=EDGE_LOOP('',(#217));
#120=EDGE_LOOP('',(#218));
#121=EDGE_LOOP('',(#219,#220,#221,#222));
#122=EDGE_LOOP('',(#223,#224,#225,#226));
#123=EDGE_LOOP('',(#227,#228,#229,#230));
#124=EDGE_LOOP('',(#231,#232,#233,#234));
#125=EDGE_LOOP('',(#235,#236,#237,#238));
#126=EDGE_LOOP('',(#239,#240,#241,#242));
#127=EDGE_LOOP('',(#243,#244,#245,#246,#247,#248));
#128=EDGE_LOOP('',(#249));
#129=EDGE_LOOP('',(#250,#251,#252,#253,#254,#255));
#130=EDGE_LOOP('',(#256));
#131=CIRCLE('',#290,2.5);
#132=CIRCLE('',#292,2.5);
#133=CIRCLE('',#294,3.65);
#134=CIRCLE('',#296,3.65);
#135=CIRCLE('',#298,3.);
#136=CIRCLE('',#299,2.5);
#137=CIRCLE('',#301,3.);
#138=CIRCLE('',#304,3.5);
#139=CIRCLE('',#306,6.7);
#140=CIRCLE('',#308,6.7);
#141=CIRCLE('',#310,6.375);
#142=CIRCLE('',#311,6.375);
#143=VERTEX_POINT('',#407);
#144=VERTEX_POINT('',#410);
#145=VERTEX_POINT('',#413);
#146=VERTEX_POINT('',#416);
#147=VERTEX_POINT('',#419);
#148=VERTEX_POINT('',#421);
#149=VERTEX_POINT('',#424);
#150=VERTEX_POINT('',#428);
#151=VERTEX_POINT('',#431);
#152=VERTEX_POINT('',#434);
#153=VERTEX_POINT('',#437);
#154=VERTEX_POINT('',#439);
#155=VERTEX_POINT('',#443);
#156=VERTEX_POINT('',#444);
#157=VERTEX_POINT('',#446);
#158=VERTEX_POINT('',#448);
#159=VERTEX_POINT('',#452);
#160=VERTEX_POINT('',#454);
#161=VERTEX_POINT('',#458);
#162=VERTEX_POINT('',#460);
#163=VERTEX_POINT('',#464);
#164=VERTEX_POINT('',#466);
#165=VERTEX_POINT('',#470);
#166=VERTEX_POINT('',#472);
#167=EDGE_CURVE('',#143,#143,#131,.T.);
#168=EDGE_CURVE('',#144,#144,#132,.T.);
#169=EDGE_CURVE('',#145,#145,#133,.T.);
#170=EDGE_CURVE('',#146,#146,#134,.T.);
#171=EDGE_CURVE('',#147,#147,#135,.T.);
#172=EDGE_CURVE('',#148,#148,#136,.T.);
#173=EDGE_CURVE('',#149,#149,#137,.T.);
#174=EDGE_CURVE('',#150,#150,#138,.T.);
#175=EDGE_CURVE('',#151,#151,#139,.T.);
#176=EDGE_CURVE('',#152,#152,#140,.T.);
#177=EDGE_CURVE('',#153,#153,#141,.T.);
#178=EDGE_CURVE('',#154,#154,#142,.T.);
#179=EDGE_CURVE('',#155,#156,#15,.T.);
#180=EDGE_CURVE('',#155,#157,#16,.T.);
#181=EDGE_CURVE('',#158,#157,#17,.T.);
#182=EDGE_CURVE('',#156,#158,#18,.T.);
#183=EDGE_CURVE('',#156,#159,#19,.T.);
#184=EDGE_CURVE('',#160,#158,#20,.T.);
#185=EDGE_CURVE('',#159,#160,#21,.T.);
#186=EDGE_CURVE('',#159,#161,#22,.T.);
#187=EDGE_CURVE('',#162,#160,#23,.T.);
#188=EDGE_CURVE('',#161,#162,#24,.T.);
#189=EDGE_CURVE('',#161,#163,#25,.T.);
#190=EDGE_CURVE('',#164,#162,#26,.T.);
#191=EDGE_CURVE('',#163,#164,#27,.T.);
#192=EDGE_CURVE('',#163,#165,#28,.T.);
#193=EDGE_CURVE('',#166,#164,#29,.T.);
#194=EDGE_CURVE('',#165,#166,#30,.T.);
#195=EDGE_CURVE('',#165,#155,#31,.T.);
#196=EDGE_CURVE('',#157,#166,#32,.T.);
#197=ORIENTED_EDGE('',*,*,#167,.T.);
#198=ORIENTED_EDGE('',*,*,#168,.F.);
#199=ORIENTED_EDGE('',*,*,#167,.F.);
#200=ORIENTED_EDGE('',*,*,#168,.T.);
#201=ORIENTED_EDGE('',*,*,#169,.T.);
#202=ORIENTED_EDGE('',*,*,#170,.F.);
#203=ORIENTED_EDGE('',*,*,#169,.F.);
#204=ORIENTED_EDGE('',*,*,#171,.T.);
#205=ORIENTED_EDGE('',*,*,#172,.T.);
#206=ORIENTED_EDGE('',*,*,#173,.F.);
#207=ORIENTED_EDGE('',*,*,#171,.F.);
#208=ORIENTED_EDGE('',*,*,#172,.F.);
#209=ORIENTED_EDGE('',*,*,#173,.T.);
#210=ORIENTED_EDGE('',*,*,#174,.T.);
#211=ORIENTED_EDGE('',*,*,#175,.T.);
#212=ORIENTED_EDGE('',*,*,#174,.F.);
#213=ORIENTED_EDGE('',*,*,#175,.F.);
#214=ORIENTED_EDGE('',*,*,#176,.F.);
#215=ORIENTED_EDGE('',*,*,#177,.F.);
#216=ORIENTED_EDGE('',*,*,#178,.F.);
#217=ORIENTED_EDGE('',*,*,#177,.T.);
#218=ORIENTED_EDGE('',*,*,#170,.T.);
#219=ORIENTED_EDGE('',*,*,#179,.F.);
#220=ORIENTED_EDGE('',*,*,#180,.T.);
#221=ORIENTED_EDGE('',*,*,#181,.F.);
#222=ORIENTED_EDGE('',*,*,#182,.F.);
#223=ORIENTED_EDGE('',*,*,#183,.F.);
#224=ORIENTED_EDGE('',*,*,#182,.T.);
#225=ORIENTED_EDGE('',*,*,#184,.F.);
#226=ORIENTED_EDGE('',*,*,#185,.F.);
#227=ORIENTED_EDGE('',*,*,#186,.F.);
#228=ORIENTED_EDGE('',*,*,#185,.T.);
#229=ORIENTED_EDGE('',*,*,#187,.F.);
#230=ORIENTED_EDGE('',*,*,#188,.F.);
#231=ORIENTED_EDGE('',*,*,#189,.F.);
#232=ORIENTED_EDGE('',*,*,#188,.T.);
#233=ORIENTED_EDGE('',*,*,#190,.F.);
#234=ORIENTED_EDGE('',*,*,#191,.F.);
#235=ORIENTED_EDGE('',*,*,#192,.F.);
#236=ORIENTED_EDGE('',*,*,#191,.T.);
#237=ORIENTED_EDGE('',*,*,#193,.F.);
#238=ORIENTED_EDGE('',*,*,#194,.F.);
#239=ORIENTED_EDGE('',*,*,#195,.F.);
#240=ORIENTED_EDGE('',*,*,#194,.T.);
#241=ORIENTED_EDGE('',*,*,#196,.F.);
#242=ORIENTED_EDGE('',*,*,#180,.F.);
#243=ORIENTED_EDGE('',*,*,#195,.T.);
#244=ORIENTED_EDGE('',*,*,#179,.T.);
#245=ORIENTED_EDGE('',*,*,#183,.T.);
#246=ORIENTED_EDGE('',*,*,#186,.T.);
#247=ORIENTED_EDGE('',*,*,#189,.T.);
#248=ORIENTED_EDGE('',*,*,#192,.T.);
#249=ORIENTED_EDGE('',*,*,#176,.T.);
#250=ORIENTED_EDGE('',*,*,#196,.T.);
#251=ORIENTED_EDGE('',*,*,#193,.T.);
#252=ORIENTED_EDGE('',*,*,#190,.T.);
#253=ORIENTED_EDGE('',*,*,#187,.T.);
#254=ORIENTED_EDGE('',*,*,#184,.T.);
#255=ORIENTED_EDGE('',*,*,#181,.T.);
#256=ORIENTED_EDGE('',*,*,#178,.T.);
#257=CONICAL_SURFACE('',#289,1.25,59.);
#258=CONICAL_SURFACE('',#293,1.825,59.);
#259=CONICAL_SURFACE('',#297,2.75,45.0000000000001);
#260=CONICAL_SURFACE('',#303,3.25,45.);
#261=ADVANCED_FACE('',(#79),#257,.F.);
#262=ADVANCED_FACE('',(#80,#62),#74,.F.);
#263=ADVANCED_FACE('',(#81,#63),#258,.F.);
#264=ADVANCED_FACE('',(#82,#64),#75,.F.);
#265=ADVANCED_FACE('',(#83,#65),#259,.T.);
#266=ADVANCED_FACE('',(#84,#66),#76,.T.);
#267=ADVANCED_FACE('',(#85),#51,.F.);
#268=ADVANCED_FACE('',(#86,#67),#260,.T.);
#269=ADVANCED_FACE('',(#87,#68),#52,.F.);
#270=ADVANCED_FACE('',(#88,#69),#77,.T.);
#271=ADVANCED_FACE('',(#89,#70),#78,.T.);
#272=ADVANCED_FACE('',(#90,#71),#53,.T.);
#273=ADVANCED_FACE('',(#91),#54,.T.);
#274=ADVANCED_FACE('',(#92),#55,.T.);
#275=ADVANCED_FACE('',(#93),#56,.T.);
#276=ADVANCED_FACE('',(#94),#57,.T.);
#277=ADVANCED_FACE('',(#95),#58,.T.);
#278=ADVANCED_FACE('',(#96),#59,.T.);
#279=ADVANCED_FACE('',(#97,#72),#60,.F.);
#280=ADVANCED_FACE('',(#98,#73),#61,.T.);
#281=CLOSED_SHELL('',(#261,#262,#263,#264,#265,#266,#267,#268,#269,#270,
#271,#272,#273,#274,#275,#276,#277,#278,#279,#280));
#282=DATE_TIME_ROLE('creation_date');
#283=APPLIED_DATE_AND_TIME_ASSIGNMENT(#284,#282,(#494));
#284=DATE_AND_TIME(#285,#286);
#285=CALENDAR_DATE(2020,26,5);
#286=LOCAL_TIME(6,58,12.,#287);
#287=COORDINATED_UNIVERSAL_TIME_OFFSET(0,0,.BEHIND.);
#288=AXIS2_PLACEMENT_3D('placement',#405,#321,#322);
#289=AXIS2_PLACEMENT_3D('',#406,#323,#324);
#290=AXIS2_PLACEMENT_3D('',#408,#325,#326);
#291=AXIS2_PLACEMENT_3D('',#409,#327,#328);
#292=AXIS2_PLACEMENT_3D('',#411,#329,#330);
#293=AXIS2_PLACEMENT_3D('',#412,#331,#332);
#294=AXIS2_PLACEMENT_3D('',#414,#333,#334);
#295=AXIS2_PLACEMENT_3D('',#415,#335,#336);
#296=AXIS2_PLACEMENT_3D('',#417,#337,#338);
#297=AXIS2_PLACEMENT_3D('',#418,#339,#340);
#298=AXIS2_PLACEMENT_3D('',#420,#341,#342);
#299=AXIS2_PLACEMENT_3D('',#422,#343,#344);
#300=AXIS2_PLACEMENT_3D('',#423,#345,#346);
#301=AXIS2_PLACEMENT_3D('',#425,#347,#348);
#302=AXIS2_PLACEMENT_3D('',#426,#349,#350);
#303=AXIS2_PLACEMENT_3D('',#427,#351,#352);
#304=AXIS2_PLACEMENT_3D('',#429,#353,#354);
#305=AXIS2_PLACEMENT_3D('',#430,#355,#356);
#306=AXIS2_PLACEMENT_3D('',#432,#357,#358);
#307=AXIS2_PLACEMENT_3D('',#433,#359,#360);
#308=AXIS2_PLACEMENT_3D('',#435,#361,#362);
#309=AXIS2_PLACEMENT_3D('',#436,#363,#364);
#310=AXIS2_PLACEMENT_3D('',#438,#365,#366);
#311=AXIS2_PLACEMENT_3D('',#440,#367,#368);
#312=AXIS2_PLACEMENT_3D('',#441,#369,#370);
#313=AXIS2_PLACEMENT_3D('',#442,#371,#372);
#314=AXIS2_PLACEMENT_3D('',#451,#377,#378);
#315=AXIS2_PLACEMENT_3D('',#457,#382,#383);
#316=AXIS2_PLACEMENT_3D('',#463,#387,#388);
#317=AXIS2_PLACEMENT_3D('',#469,#392,#393);
#318=AXIS2_PLACEMENT_3D('',#475,#397,#398);
#319=AXIS2_PLACEMENT_3D('',#478,#401,#402);
#320=AXIS2_PLACEMENT_3D('',#479,#403,#404);
#321=DIRECTION('axis',(0.,0.,1.));
#322=DIRECTION('refdir',(1.,0.,0.));
#323=DIRECTION('center_axis',(0.,0.,1.));
#324=DIRECTION('ref_axis',(1.,0.,0.));
#325=DIRECTION('center_axis',(0.,0.,1.));
#326=DIRECTION('ref_axis',(1.,0.,0.));
#327=DIRECTION('center_axis',(0.,0.,1.));
#328=DIRECTION('ref_axis',(1.,0.,0.));
#329=DIRECTION('center_axis',(0.,0.,-1.));
#330=DIRECTION('ref_axis',(1.,0.,0.));
#331=DIRECTION('center_axis',(0.,0.,1.));
#332=DIRECTION('ref_axis',(1.,0.,0.));
#333=DIRECTION('center_axis',(0.,0.,1.));
#334=DIRECTION('ref_axis',(1.,0.,0.));
#335=DIRECTION('center_axis',(0.,0.,1.));
#336=DIRECTION('ref_axis',(1.,0.,0.));
#337=DIRECTION('center_axis',(0.,0.,-1.));
#338=DIRECTION('ref_axis',(1.,0.,0.));
#339=DIRECTION('center_axis',(0.,0.,1.));
#340=DIRECTION('ref_axis',(1.,0.,0.));
#341=DIRECTION('center_axis',(0.,0.,-1.));
#342=DIRECTION('ref_axis',(1.,0.,0.));
#343=DIRECTION('center_axis',(0.,0.,1.));
#344=DIRECTION('ref_axis',(1.,0.,0.));
#345=DIRECTION('center_axis',(0.,0.,-1.));
#346=DIRECTION('ref_axis',(1.,0.,0.));
#347=DIRECTION('center_axis',(0.,0.,1.));
#348=DIRECTION('ref_axis',(1.,0.,0.));
#349=DIRECTION('center_axis',(0.,0.,1.));
#350=DIRECTION('ref_axis',(1.,0.,0.));
#351=DIRECTION('center_axis',(0.,0.,1.));
#352=DIRECTION('ref_axis',(1.,0.,0.));
#353=DIRECTION('center_axis',(0.,0.,-1.));
#354=DIRECTION('ref_axis',(1.,0.,0.));
#355=DIRECTION('center_axis',(0.,0.,1.));
#356=DIRECTION('ref_axis',(1.,0.,0.));
#357=DIRECTION('center_axis',(0.,0.,-1.));
#358=DIRECTION('ref_axis',(1.,0.,0.));
#359=DIRECTION('center_axis',(0.,0.,-1.));
#360=DIRECTION('ref_axis',(1.,0.,0.));
#361=DIRECTION('center_axis',(0.,0.,1.));
#362=DIRECTION('ref_axis',(1.,0.,0.));
#363=DIRECTION('center_axis',(0.,0.,1.));
#364=DIRECTION('ref_axis',(-1.,0.,0.));
#365=DIRECTION('center_axis',(0.,0.,1.));
#366=DIRECTION('ref_axis',(-1.,0.,0.));
#367=DIRECTION('center_axis',(0.,0.,-1.));
#368=DIRECTION('ref_axis',(-1.,0.,0.));
#369=DIRECTION('center_axis',(0.,0.,1.));
#370=DIRECTION('ref_axis',(1.,0.,0.));
#371=DIRECTION('center_axis',(1.,4.1502791792451E-16,0.));
#372=DIRECTION('ref_axis',(-4.44089209850063E-16,1.,0.));
#373=DIRECTION('',(4.1502791792451E-16,-1.,0.));
#374=DIRECTION('',(0.,0.,1.));
#375=DIRECTION('',(-4.1502791792451E-16,1.,0.));
#376=DIRECTION('',(0.,0.,1.));
#377=DIRECTION('center_axis',(0.5,-0.866025403784438,0.));
#378=DIRECTION('ref_axis',(0.866025403784438,0.5,0.));
#379=DIRECTION('',(-0.866025403784438,-0.5,0.));
#380=DIRECTION('',(0.866025403784438,0.5,0.));
#381=DIRECTION('',(0.,0.,1.));
#382=DIRECTION('center_axis',(-0.5,-0.866025403784439,0.));
#383=DIRECTION('ref_axis',(0.866025403784439,-0.499999999999999,0.));
#384=DIRECTION('',(-0.866025403784439,0.499999999999999,0.));
#385=DIRECTION('',(0.866025403784439,-0.499999999999999,0.));
#386=DIRECTION('',(0.,0.,1.));
#387=DIRECTION('center_axis',(-1.,-5.5337055723268E-16,0.));
#388=DIRECTION('ref_axis',(5.32907051820075E-16,-1.,0.));
#389=DIRECTION('',(-5.5337055723268E-16,1.,0.));
#390=DIRECTION('',(5.5337055723268E-16,-1.,0.));
#391=DIRECTION('',(0.,0.,1.));
#392=DIRECTION('center_axis',(-0.500000000000001,0.866025403784438,0.));
#393=DIRECTION('ref_axis',(-0.866025403784438,-0.500000000000001,0.));
#394=DIRECTION('',(0.866025403784438,0.500000000000001,0.));
#395=DIRECTION('',(-0.866025403784438,-0.500000000000001,0.));
#396=DIRECTION('',(0.,0.,1.));
#397=DIRECTION('center_axis',(0.5,0.866025403784439,0.));
#398=DIRECTION('ref_axis',(-0.866025403784439,0.499999999999999,0.));
#399=DIRECTION('',(0.866025403784439,-0.499999999999999,0.));
#400=DIRECTION('',(-0.866025403784439,0.499999999999999,0.));
#401=DIRECTION('center_axis',(0.,0.,1.));
#402=DIRECTION('ref_axis',(1.,0.,0.));
#403=DIRECTION('center_axis',(0.,0.,1.));
#404=DIRECTION('ref_axis',(1.,0.,0.));
#405=CARTESIAN_POINT('',(0.,0.,0.));
#406=CARTESIAN_POINT('Origin',(0.,0.,-5.75107577378445));
#407=CARTESIAN_POINT('',(2.5,0.,-5.));
#408=CARTESIAN_POINT('Origin',(0.,0.,-5.));
#409=CARTESIAN_POINT('Origin',(0.,0.,7.));
#410=CARTESIAN_POINT('',(-2.5,3.06161699786838E-16,11.8090102881183));
#411=CARTESIAN_POINT('Origin',(0.,0.,11.8090102881183));
#412=CARTESIAN_POINT('Origin',(0.,0.,11.4034293702747));
#413=CARTESIAN_POINT('',(3.65,0.,12.5));
#414=CARTESIAN_POINT('Origin',(0.,0.,12.5));
#415=CARTESIAN_POINT('Origin',(0.,0.,15.75));
#416=CARTESIAN_POINT('',(3.65,0.,19.));
#417=CARTESIAN_POINT('Origin',(0.,0.,19.));
#418=CARTESIAN_POINT('Origin',(0.,0.,-25.25));
#419=CARTESIAN_POINT('',(-3.,3.67394039744206E-16,-25.));
#420=CARTESIAN_POINT('Origin',(0.,0.,-25.));
#421=CARTESIAN_POINT('',(-2.5,-3.06161699786838E-16,-25.5));
#422=CARTESIAN_POINT('Origin',(0.,0.,-25.5));
#423=CARTESIAN_POINT('Origin',(0.,0.,-10.5));
#424=CARTESIAN_POINT('',(-3.,-3.67394039744206E-16,-11.));
#425=CARTESIAN_POINT('Origin',(0.,0.,-11.));
#426=CARTESIAN_POINT('Origin',(3.39011454596783E-16,7.70988211545247E-17,
-25.5));
#427=CARTESIAN_POINT('Origin',(0.,0.,-10.75));
#428=CARTESIAN_POINT('',(-3.5,4.28626379701574E-16,-10.5));
#429=CARTESIAN_POINT('Origin',(0.,0.,-10.5));
#430=CARTESIAN_POINT('Origin',(6.83761129523939E-17,0.,-10.5));
#431=CARTESIAN_POINT('',(-6.7,8.20513355428727E-16,-10.5));
#432=CARTESIAN_POINT('Origin',(0.,0.,-10.5));
#433=CARTESIAN_POINT('Origin',(0.,0.,0.));
#434=CARTESIAN_POINT('',(-6.7,8.20513355428727E-16,0.));
#435=CARTESIAN_POINT('Origin',(0.,0.,0.));
#436=CARTESIAN_POINT('Origin',(0.,0.,7.));
#437=CARTESIAN_POINT('',(6.375,7.80712334456438E-16,19.));
#438=CARTESIAN_POINT('Origin',(0.,0.,19.));
#439=CARTESIAN_POINT('',(6.375,7.80712334456438E-16,7.));
#440=CARTESIAN_POINT('Origin',(0.,0.,7.));
#441=CARTESIAN_POINT('Origin',(-3.5531374672762E-16,0.,19.));
#442=CARTESIAN_POINT('Origin',(6.95,-4.01258437086789,0.));
#443=CARTESIAN_POINT('',(6.95,4.0125843708679,0.));
#444=CARTESIAN_POINT('',(6.95,-4.01258437086789,0.));
#445=CARTESIAN_POINT('',(6.95,4.0125843708679,0.));
#446=CARTESIAN_POINT('',(6.95,4.0125843708679,7.));
#447=CARTESIAN_POINT('',(6.95,4.0125843708679,0.));
#448=CARTESIAN_POINT('',(6.95,-4.01258437086789,7.));
#449=CARTESIAN_POINT('',(6.95,4.0125843708679,7.));
#450=CARTESIAN_POINT('',(6.95,-4.01258437086789,0.));
#451=CARTESIAN_POINT('Origin',(1.11022302462516E-15,-8.0251687417358,0.));
#452=CARTESIAN_POINT('',(3.41741795274971E-15,-8.0251687417358,0.));
#453=CARTESIAN_POINT('',(6.95,-4.01258437086789,0.));
#454=CARTESIAN_POINT('',(3.41741795274971E-15,-8.0251687417358,7.));
#455=CARTESIAN_POINT('',(6.95,-4.01258437086789,7.));
#456=CARTESIAN_POINT('',(3.41741795274971E-15,-8.0251687417358,0.));
#457=CARTESIAN_POINT('Origin',(-6.95,-4.0125843708679,0.));
#458=CARTESIAN_POINT('',(-6.95,-4.0125843708679,0.));
#459=CARTESIAN_POINT('',(3.41741795274971E-15,-8.0251687417358,0.));
#460=CARTESIAN_POINT('',(-6.95,-4.0125843708679,7.));
#461=CARTESIAN_POINT('',(3.41741795274971E-15,-8.0251687417358,7.));
#462=CARTESIAN_POINT('',(-6.95,-4.0125843708679,0.));
#463=CARTESIAN_POINT('Origin',(-6.95,4.01258437086789,0.));
#464=CARTESIAN_POINT('',(-6.95,4.01258437086789,0.));
#465=CARTESIAN_POINT('',(-6.95,-4.0125843708679,0.));
#466=CARTESIAN_POINT('',(-6.95,4.01258437086789,7.));
#467=CARTESIAN_POINT('',(-6.95,-4.0125843708679,7.));
#468=CARTESIAN_POINT('',(-6.95,4.01258437086789,0.));
#469=CARTESIAN_POINT('Origin',(-7.7715611723761E-15,8.0251687417358,0.));
#470=CARTESIAN_POINT('',(-7.54697662852856E-15,8.0251687417358,0.));
#471=CARTESIAN_POINT('',(-6.95,4.01258437086789,0.));
#472=CARTESIAN_POINT('',(-7.54697662852856E-15,8.0251687417358,7.));
#473=CARTESIAN_POINT('',(-6.95,4.01258437086789,7.));
#474=CARTESIAN_POINT('',(-7.54697662852856E-15,8.0251687417358,0.));
#475=CARTESIAN_POINT('Origin',(6.95,4.0125843708679,0.));
#476=CARTESIAN_POINT('',(-7.54697662852856E-15,8.0251687417358,0.));
#477=CARTESIAN_POINT('',(-7.54697662852856E-15,8.0251687417358,7.));
#478=CARTESIAN_POINT('Origin',(-7.78177346108457E-16,5.18784897405638E-16,
0.));
#479=CARTESIAN_POINT('Origin',(-7.78177346108456E-16,0.,7.));
#480=UNCERTAINTY_MEASURE_WITH_UNIT(LENGTH_MEASURE(0.01),#484,
'DISTANCE_ACCURACY_VALUE',
'Maximum model space distance between geometric entities at asserted c
onnectivities');
#481=UNCERTAINTY_MEASURE_WITH_UNIT(LENGTH_MEASURE(1.E-6),#484,
'DISTANCE_ACCURACY_VALUE',
'Maximum model space distance between geometric entities at asserted c
onnectivities');
#482=(
GEOMETRIC_REPRESENTATION_CONTEXT(3)
GLOBAL_UNCERTAINTY_ASSIGNED_CONTEXT((#480))
GLOBAL_UNIT_ASSIGNED_CONTEXT((#484,#487,#485))
REPRESENTATION_CONTEXT('','3D')
);
#483=(
GEOMETRIC_REPRESENTATION_CONTEXT(3)
GLOBAL_UNCERTAINTY_ASSIGNED_CONTEXT((#481))
GLOBAL_UNIT_ASSIGNED_CONTEXT((#484,#487,#485))
REPRESENTATION_CONTEXT('','3D')
);
#484=(
LENGTH_UNIT()
NAMED_UNIT(*)
SI_UNIT(.MILLI.,.METRE.)
);
#485=(
NAMED_UNIT(*)
SI_UNIT($,.STERADIAN.)
SOLID_ANGLE_UNIT()
);
#486=DIMENSIONAL_EXPONENTS(0.,0.,0.,0.,0.,0.,0.);
#487=(
CONVERSION_BASED_UNIT('degree',#489)
NAMED_UNIT(#486)
PLANE_ANGLE_UNIT()
);
#488=(
NAMED_UNIT(*)
PLANE_ANGLE_UNIT()
SI_UNIT($,.RADIAN.)
);
#489=PLANE_ANGLE_MEASURE_WITH_UNIT(PLANE_ANGLE_MEASURE(0.01745329252),#488);
#490=SHAPE_DEFINITION_REPRESENTATION(#491,#492);
#491=PRODUCT_DEFINITION_SHAPE('',$,#494);
#492=SHAPE_REPRESENTATION('',(#288),#482);
#493=PRODUCT_DEFINITION_CONTEXT('part definition',#498,'design');
#494=PRODUCT_DEFINITION('Morini Distanzbolzen Seitendeckel links',
'Morini Distanzbolzen Seitendeckel links',#495,#493);
#495=PRODUCT_DEFINITION_FORMATION('',$,#500);
#496=PRODUCT_RELATED_PRODUCT_CATEGORY(
'Morini Distanzbolzen Seitendeckel links',
'Morini Distanzbolzen Seitendeckel links',(#500));
#497=APPLICATION_PROTOCOL_DEFINITION('international standard',
'automotive_design',2009,#498);
#498=APPLICATION_CONTEXT(
'Core Data for Automotive Mechanical Design Process');
#499=PRODUCT_CONTEXT('part definition',#498,'mechanical');
#500=PRODUCT('Morini Distanzbolzen Seitendeckel links',
'Morini Distanzbolzen Seitendeckel links',$,(#499));
#501=PRESENTATION_STYLE_ASSIGNMENT((#502));
#502=SURFACE_STYLE_USAGE(.BOTH.,#503);
#503=SURFACE_SIDE_STYLE('',(#504));
#504=SURFACE_STYLE_FILL_AREA(#505);
#505=FILL_AREA_STYLE('',(#506));
#506=FILL_AREA_STYLE_COLOUR('',#507);
#507=COLOUR_RGB('',0.745098039215686,0.737254901960784,0.729411764705882);
ENDSEC;
END-ISO-10303-21;
