ISO-10303-21;
HEADER;
/* Generated by software containing ST-Developer
 * from STEP Tools, Inc. (www.steptools.com) 
 */

FILE_DESCRIPTION(
/* description */ (''),
/* implementation_level */ '2;1');

FILE_NAME(
/* name */ 
'C:\\Users\\mfr\\Desktop\\mediatektur\\Morini F\X\FChrungsh\X\FClse Se
itendecke links.stp',
/* time_stamp */ '2020-05-26T09:52:45+02:00',
/* author */ ('mfr'),
/* organization */ (''),
/* preprocessor_version */ 'ST-DEVELOPER v16.5',
/* originating_system */ 'Autodesk Inventor 2017',
/* authorisation */ '');

FILE_SCHEMA (('AUTOMOTIVE_DESIGN { 1 0 10303 214 3 1 1 }'));
ENDSEC;

DATA;
#10=MECHANICAL_DESIGN_GEOMETRIC_PRESENTATION_REPRESENTATION('',(#13),#189);
#11=SHAPE_REPRESENTATION_RELATIONSHIP('SRR','None',#198,#12);
#12=ADVANCED_BREP_SHAPE_REPRESENTATION('',(#14),#188);
#13=STYLED_ITEM('',(#207),#14);
#14=MANIFOLD_SOLID_BREP('Volumenk\X\F6rper1',#103);
#15=PLANE('',#116);
#16=PLANE('',#120);
#17=CYLINDRICAL_SURFACE('',#114,3.5);
#18=CYLINDRICAL_SURFACE('',#124,4.9);
#19=FACE_BOUND('',#36,.T.);
#20=FACE_BOUND('',#38,.T.);
#21=FACE_BOUND('',#40,.T.);
#22=FACE_BOUND('',#42,.T.);
#23=FACE_BOUND('',#44,.T.);
#24=FACE_BOUND('',#46,.T.);
#25=FACE_BOUND('',#48,.T.);
#26=FACE_BOUND('',#50,.T.);
#27=FACE_OUTER_BOUND('',#35,.T.);
#28=FACE_OUTER_BOUND('',#37,.T.);
#29=FACE_OUTER_BOUND('',#39,.T.);
#30=FACE_OUTER_BOUND('',#41,.T.);
#31=FACE_OUTER_BOUND('',#43,.T.);
#32=FACE_OUTER_BOUND('',#45,.T.);
#33=FACE_OUTER_BOUND('',#47,.T.);
#34=FACE_OUTER_BOUND('',#49,.T.);
#35=EDGE_LOOP('',(#75));
#36=EDGE_LOOP('',(#76));
#37=EDGE_LOOP('',(#77));
#38=EDGE_LOOP('',(#78));
#39=EDGE_LOOP('',(#79));
#40=EDGE_LOOP('',(#80));
#41=EDGE_LOOP('',(#81));
#42=EDGE_LOOP('',(#82));
#43=EDGE_LOOP('',(#83));
#44=EDGE_LOOP('',(#84));
#45=EDGE_LOOP('',(#85));
#46=EDGE_LOOP('',(#86));
#47=EDGE_LOOP('',(#87));
#48=EDGE_LOOP('',(#88));
#49=EDGE_LOOP('',(#89));
#50=EDGE_LOOP('',(#90));
#51=CIRCLE('',#112,3.5);
#52=CIRCLE('',#113,3.7);
#53=CIRCLE('',#115,3.5);
#54=CIRCLE('',#117,4.7);
#55=CIRCLE('',#119,3.7);
#56=CIRCLE('',#121,4.7);
#57=CIRCLE('',#123,4.9);
#58=CIRCLE('',#125,4.9);
#59=VERTEX_POINT('',#163);
#60=VERTEX_POINT('',#165);
#61=VERTEX_POINT('',#168);
#62=VERTEX_POINT('',#171);
#63=VERTEX_POINT('',#174);
#64=VERTEX_POINT('',#177);
#65=VERTEX_POINT('',#180);
#66=VERTEX_POINT('',#183);
#67=EDGE_CURVE('',#59,#59,#51,.T.);
#68=EDGE_CURVE('',#60,#60,#52,.T.);
#69=EDGE_CURVE('',#61,#61,#53,.T.);
#70=EDGE_CURVE('',#62,#62,#54,.T.);
#71=EDGE_CURVE('',#63,#63,#55,.T.);
#72=EDGE_CURVE('',#64,#64,#56,.T.);
#73=EDGE_CURVE('',#65,#65,#57,.T.);
#74=EDGE_CURVE('',#66,#66,#58,.T.);
#75=ORIENTED_EDGE('',*,*,#67,.T.);
#76=ORIENTED_EDGE('',*,*,#68,.T.);
#77=ORIENTED_EDGE('',*,*,#69,.F.);
#78=ORIENTED_EDGE('',*,*,#67,.F.);
#79=ORIENTED_EDGE('',*,*,#70,.F.);
#80=ORIENTED_EDGE('',*,*,#68,.F.);
#81=ORIENTED_EDGE('',*,*,#69,.T.);
#82=ORIENTED_EDGE('',*,*,#71,.T.);
#83=ORIENTED_EDGE('',*,*,#72,.F.);
#84=ORIENTED_EDGE('',*,*,#71,.F.);
#85=ORIENTED_EDGE('',*,*,#73,.T.);
#86=ORIENTED_EDGE('',*,*,#70,.T.);
#87=ORIENTED_EDGE('',*,*,#74,.F.);
#88=ORIENTED_EDGE('',*,*,#73,.F.);
#89=ORIENTED_EDGE('',*,*,#74,.T.);
#90=ORIENTED_EDGE('',*,*,#72,.T.);
#91=CONICAL_SURFACE('',#111,3.6,45.);
#92=CONICAL_SURFACE('',#118,3.6,45.);
#93=CONICAL_SURFACE('',#122,4.8,45.);
#94=CONICAL_SURFACE('',#126,4.8,45.);
#95=ADVANCED_FACE('',(#27,#19),#91,.F.);
#96=ADVANCED_FACE('',(#28,#20),#17,.F.);
#97=ADVANCED_FACE('',(#29,#21),#15,.F.);
#98=ADVANCED_FACE('',(#30,#22),#92,.F.);
#99=ADVANCED_FACE('',(#31,#23),#16,.T.);
#100=ADVANCED_FACE('',(#32,#24),#93,.T.);
#101=ADVANCED_FACE('',(#33,#25),#18,.T.);
#102=ADVANCED_FACE('',(#34,#26),#94,.T.);
#103=CLOSED_SHELL('',(#95,#96,#97,#98,#99,#100,#101,#102));
#104=DATE_TIME_ROLE('creation_date');
#105=APPLIED_DATE_AND_TIME_ASSIGNMENT(#106,#104,(#200));
#106=DATE_AND_TIME(#107,#108);
#107=CALENDAR_DATE(2020,26,5);
#108=LOCAL_TIME(7,50,24.,#109);
#109=COORDINATED_UNIVERSAL_TIME_OFFSET(0,0,.BEHIND.);
#110=AXIS2_PLACEMENT_3D('placement',#161,#127,#128);
#111=AXIS2_PLACEMENT_3D('',#162,#129,#130);
#112=AXIS2_PLACEMENT_3D('',#164,#131,#132);
#113=AXIS2_PLACEMENT_3D('',#166,#133,#134);
#114=AXIS2_PLACEMENT_3D('',#167,#135,#136);
#115=AXIS2_PLACEMENT_3D('',#169,#137,#138);
#116=AXIS2_PLACEMENT_3D('',#170,#139,#140);
#117=AXIS2_PLACEMENT_3D('',#172,#141,#142);
#118=AXIS2_PLACEMENT_3D('',#173,#143,#144);
#119=AXIS2_PLACEMENT_3D('',#175,#145,#146);
#120=AXIS2_PLACEMENT_3D('',#176,#147,#148);
#121=AXIS2_PLACEMENT_3D('',#178,#149,#150);
#122=AXIS2_PLACEMENT_3D('',#179,#151,#152);
#123=AXIS2_PLACEMENT_3D('',#181,#153,#154);
#124=AXIS2_PLACEMENT_3D('',#182,#155,#156);
#125=AXIS2_PLACEMENT_3D('',#184,#157,#158);
#126=AXIS2_PLACEMENT_3D('',#185,#159,#160);
#127=DIRECTION('axis',(0.,0.,1.));
#128=DIRECTION('refdir',(1.,0.,0.));
#129=DIRECTION('center_axis',(0.,0.,-1.));
#130=DIRECTION('ref_axis',(-1.,0.,0.));
#131=DIRECTION('center_axis',(0.,0.,1.));
#132=DIRECTION('ref_axis',(-1.,0.,0.));
#133=DIRECTION('center_axis',(0.,0.,-1.));
#134=DIRECTION('ref_axis',(-1.,0.,0.));
#135=DIRECTION('center_axis',(0.,0.,1.));
#136=DIRECTION('ref_axis',(-1.,0.,0.));
#137=DIRECTION('center_axis',(0.,0.,-1.));
#138=DIRECTION('ref_axis',(-1.,0.,0.));
#139=DIRECTION('center_axis',(0.,0.,1.));
#140=DIRECTION('ref_axis',(1.,0.,0.));
#141=DIRECTION('center_axis',(0.,0.,1.));
#142=DIRECTION('ref_axis',(-1.,0.,0.));
#143=DIRECTION('center_axis',(0.,0.,1.));
#144=DIRECTION('ref_axis',(-1.,0.,0.));
#145=DIRECTION('center_axis',(0.,0.,1.));
#146=DIRECTION('ref_axis',(-1.,0.,0.));
#147=DIRECTION('center_axis',(0.,0.,1.));
#148=DIRECTION('ref_axis',(1.,0.,0.));
#149=DIRECTION('center_axis',(0.,0.,-1.));
#150=DIRECTION('ref_axis',(-1.,0.,0.));
#151=DIRECTION('center_axis',(0.,0.,1.));
#152=DIRECTION('ref_axis',(-1.,0.,0.));
#153=DIRECTION('center_axis',(0.,0.,-1.));
#154=DIRECTION('ref_axis',(-1.,0.,0.));
#155=DIRECTION('center_axis',(0.,0.,1.));
#156=DIRECTION('ref_axis',(-1.,0.,0.));
#157=DIRECTION('center_axis',(0.,0.,1.));
#158=DIRECTION('ref_axis',(-1.,0.,0.));
#159=DIRECTION('center_axis',(0.,0.,-1.));
#160=DIRECTION('ref_axis',(-1.,0.,0.));
#161=CARTESIAN_POINT('',(0.,0.,0.));
#162=CARTESIAN_POINT('Origin',(0.,0.,0.1));
#163=CARTESIAN_POINT('',(3.5,4.28626379701574E-16,0.2));
#164=CARTESIAN_POINT('Origin',(0.,0.,0.2));
#165=CARTESIAN_POINT('',(3.7,-4.53119315684521E-16,0.));
#166=CARTESIAN_POINT('Origin',(0.,0.,0.));
#167=CARTESIAN_POINT('Origin',(0.,0.,0.));
#168=CARTESIAN_POINT('',(3.5,-4.28626379701574E-16,9.1));
#169=CARTESIAN_POINT('Origin',(0.,0.,9.1));
#170=CARTESIAN_POINT('Origin',(-2.38819850527285E-16,0.,0.));
#171=CARTESIAN_POINT('',(4.7,5.75583995599256E-16,0.));
#172=CARTESIAN_POINT('Origin',(0.,0.,0.));
#173=CARTESIAN_POINT('Origin',(0.,0.,9.2));
#174=CARTESIAN_POINT('',(3.7,4.53119315684521E-16,9.3));
#175=CARTESIAN_POINT('Origin',(0.,0.,9.3));
#176=CARTESIAN_POINT('Origin',(-2.38819850527285E-16,0.,9.3));
#177=CARTESIAN_POINT('',(4.7,-5.75583995599256E-16,9.3));
#178=CARTESIAN_POINT('Origin',(0.,0.,9.3));
#179=CARTESIAN_POINT('Origin',(0.,0.,0.1));
#180=CARTESIAN_POINT('',(4.9,-6.00076931582203E-16,0.2));
#181=CARTESIAN_POINT('Origin',(0.,0.,0.2));
#182=CARTESIAN_POINT('Origin',(0.,0.,0.));
#183=CARTESIAN_POINT('',(4.9,6.00076931582203E-16,9.1));
#184=CARTESIAN_POINT('Origin',(0.,0.,9.1));
#185=CARTESIAN_POINT('Origin',(0.,0.,9.2));
#186=UNCERTAINTY_MEASURE_WITH_UNIT(LENGTH_MEASURE(0.01),#190,
'DISTANCE_ACCURACY_VALUE',
'Maximum model space distance between geometric entities at asserted c
onnectivities');
#187=UNCERTAINTY_MEASURE_WITH_UNIT(LENGTH_MEASURE(1.E-6),#190,
'DISTANCE_ACCURACY_VALUE',
'Maximum model space distance between geometric entities at asserted c
onnectivities');
#188=(
GEOMETRIC_REPRESENTATION_CONTEXT(3)
GLOBAL_UNCERTAINTY_ASSIGNED_CONTEXT((#186))
GLOBAL_UNIT_ASSIGNED_CONTEXT((#190,#193,#191))
REPRESENTATION_CONTEXT('','3D')
);
#189=(
GEOMETRIC_REPRESENTATION_CONTEXT(3)
GLOBAL_UNCERTAINTY_ASSIGNED_CONTEXT((#187))
GLOBAL_UNIT_ASSIGNED_CONTEXT((#190,#193,#191))
REPRESENTATION_CONTEXT('','3D')
);
#190=(
LENGTH_UNIT()
NAMED_UNIT(*)
SI_UNIT(.MILLI.,.METRE.)
);
#191=(
NAMED_UNIT(*)
SI_UNIT($,.STERADIAN.)
SOLID_ANGLE_UNIT()
);
#192=DIMENSIONAL_EXPONENTS(0.,0.,0.,0.,0.,0.,0.);
#193=(
CONVERSION_BASED_UNIT('degree',#195)
NAMED_UNIT(#192)
PLANE_ANGLE_UNIT()
);
#194=(
NAMED_UNIT(*)
PLANE_ANGLE_UNIT()
SI_UNIT($,.RADIAN.)
);
#195=PLANE_ANGLE_MEASURE_WITH_UNIT(PLANE_ANGLE_MEASURE(0.01745329252),#194);
#196=SHAPE_DEFINITION_REPRESENTATION(#197,#198);
#197=PRODUCT_DEFINITION_SHAPE('',$,#200);
#198=SHAPE_REPRESENTATION('',(#110),#188);
#199=PRODUCT_DEFINITION_CONTEXT('part definition',#204,'design');
#200=PRODUCT_DEFINITION('Morini F\X\FChrungsh\X\FClse Seitendecke link
s','Morini F\X\FChrungsh\X\FClse Seitendecke links',#201,#199);
#201=PRODUCT_DEFINITION_FORMATION('',$,#206);
#202=PRODUCT_RELATED_PRODUCT_CATEGORY(
'Morini F\X\FChrungsh\X\FClse Seitendecke links',
'Morini F\X\FChrungsh\X\FClse Seitendecke links',(#206));
#203=APPLICATION_PROTOCOL_DEFINITION('international standard',
'automotive_design',2009,#204);
#204=APPLICATION_CONTEXT(
'Core Data for Automotive Mechanical Design Process');
#205=PRODUCT_CONTEXT('part definition',#204,'mechanical');
#206=PRODUCT('Morini F\X\FChrungsh\X\FClse Seitendecke links',
'Morini F\X\FChrungsh\X\FClse Seitendecke links',$,(#205));
#207=PRESENTATION_STYLE_ASSIGNMENT((#208));
#208=SURFACE_STYLE_USAGE(.BOTH.,#209);
#209=SURFACE_SIDE_STYLE('',(#210));
#210=SURFACE_STYLE_FILL_AREA(#211);
#211=FILL_AREA_STYLE('',(#212));
#212=FILL_AREA_STYLE_COLOUR('',#213);
#213=COLOUR_RGB('',0.745098039215686,0.737254901960784,0.729411764705882);
ENDSEC;
END-ISO-10303-21;
