ISO-10303-21;
HEADER;
/* Generated by software containing ST-Developer
 * from STEP Tools, Inc. (www.steptools.com) 
 */

FILE_DESCRIPTION(
/* description */ (''),
/* implementation_level */ '2;1');

FILE_NAME(
/* name */ 
'C:\\Users\\mfr\\Desktop\\mediatektur\\Morini Cockpit Aluring.stp',
/* time_stamp */ '2020-05-02T21:54:24+02:00',
/* author */ ('mfr'),
/* organization */ (''),
/* preprocessor_version */ 'ST-DEVELOPER v16.5',
/* originating_system */ 'Autodesk Inventor 2017',
/* authorisation */ '');

FILE_SCHEMA (('AUTOMOTIVE_DESIGN { 1 0 10303 214 3 1 1 }'));
ENDSEC;

DATA;
#10=MECHANICAL_DESIGN_GEOMETRIC_PRESENTATION_REPRESENTATION('',(#13),#409);
#11=SHAPE_REPRESENTATION_RELATIONSHIP('SRR','None',#418,#12);
#12=ADVANCED_BREP_SHAPE_REPRESENTATION('',(#14),#408);
#13=STYLED_ITEM('',(#427),#14);
#14=MANIFOLD_SOLID_BREP('Volumenk\X\F6rper1',#224);
#15=PLANE('',#251);
#16=PLANE('',#259);
#17=PLANE('',#269);
#18=TOROIDAL_SURFACE('',#249,47.3823193302003,0.200000000000015);
#19=TOROIDAL_SURFACE('',#253,46.2,0.2);
#20=TOROIDAL_SURFACE('',#257,46.2,0.199999999999996);
#21=TOROIDAL_SURFACE('',#261,47.9063669012598,1.00000000000002);
#22=TOROIDAL_SURFACE('',#265,53.5483304378415,1.);
#23=FACE_BOUND('',#67,.T.);
#24=FACE_BOUND('',#70,.T.);
#25=FACE_BOUND('',#73,.T.);
#26=FACE_BOUND('',#75,.T.);
#27=FACE_BOUND('',#77,.T.);
#28=FACE_BOUND('',#79,.T.);
#29=FACE_BOUND('',#81,.T.);
#30=FACE_BOUND('',#83,.T.);
#31=FACE_BOUND('',#85,.T.);
#32=FACE_BOUND('',#87,.T.);
#33=FACE_BOUND('',#89,.T.);
#34=FACE_BOUND('',#91,.T.);
#35=FACE_BOUND('',#93,.T.);
#36=FACE_BOUND('',#95,.T.);
#37=FACE_BOUND('',#97,.T.);
#38=FACE_BOUND('',#99,.T.);
#39=FACE_BOUND('',#100,.T.);
#40=FACE_BOUND('',#101,.T.);
#41=FACE_BOUND('',#102,.T.);
#42=CYLINDRICAL_SURFACE('',#234,0.8);
#43=CYLINDRICAL_SURFACE('',#238,0.8);
#44=CYLINDRICAL_SURFACE('',#242,0.8);
#45=CYLINDRICAL_SURFACE('',#255,46.);
#46=FACE_OUTER_BOUND('',#65,.T.);
#47=FACE_OUTER_BOUND('',#66,.T.);
#48=FACE_OUTER_BOUND('',#68,.T.);
#49=FACE_OUTER_BOUND('',#69,.T.);
#50=FACE_OUTER_BOUND('',#71,.T.);
#51=FACE_OUTER_BOUND('',#72,.T.);
#52=FACE_OUTER_BOUND('',#74,.T.);
#53=FACE_OUTER_BOUND('',#76,.T.);
#54=FACE_OUTER_BOUND('',#78,.T.);
#55=FACE_OUTER_BOUND('',#80,.T.);
#56=FACE_OUTER_BOUND('',#82,.T.);
#57=FACE_OUTER_BOUND('',#84,.T.);
#58=FACE_OUTER_BOUND('',#86,.T.);
#59=FACE_OUTER_BOUND('',#88,.T.);
#60=FACE_OUTER_BOUND('',#90,.T.);
#61=FACE_OUTER_BOUND('',#92,.T.);
#62=FACE_OUTER_BOUND('',#94,.T.);
#63=FACE_OUTER_BOUND('',#96,.T.);
#64=FACE_OUTER_BOUND('',#98,.T.);
#65=EDGE_LOOP('',(#160));
#66=EDGE_LOOP('',(#161));
#67=EDGE_LOOP('',(#162));
#68=EDGE_LOOP('',(#163));
#69=EDGE_LOOP('',(#164));
#70=EDGE_LOOP('',(#165));
#71=EDGE_LOOP('',(#166));
#72=EDGE_LOOP('',(#167));
#73=EDGE_LOOP('',(#168));
#74=EDGE_LOOP('',(#169));
#75=EDGE_LOOP('',(#170));
#76=EDGE_LOOP('',(#171));
#77=EDGE_LOOP('',(#172));
#78=EDGE_LOOP('',(#173));
#79=EDGE_LOOP('',(#174));
#80=EDGE_LOOP('',(#175));
#81=EDGE_LOOP('',(#176));
#82=EDGE_LOOP('',(#177));
#83=EDGE_LOOP('',(#178));
#84=EDGE_LOOP('',(#179));
#85=EDGE_LOOP('',(#180));
#86=EDGE_LOOP('',(#181));
#87=EDGE_LOOP('',(#182));
#88=EDGE_LOOP('',(#183));
#89=EDGE_LOOP('',(#184));
#90=EDGE_LOOP('',(#185));
#91=EDGE_LOOP('',(#186));
#92=EDGE_LOOP('',(#187));
#93=EDGE_LOOP('',(#188));
#94=EDGE_LOOP('',(#189));
#95=EDGE_LOOP('',(#190));
#96=EDGE_LOOP('',(#191));
#97=EDGE_LOOP('',(#192));
#98=EDGE_LOOP('',(#193));
#99=EDGE_LOOP('',(#194));
#100=EDGE_LOOP('',(#195));
#101=EDGE_LOOP('',(#196));
#102=EDGE_LOOP('',(#197));
#103=CIRCLE('',#233,0.8);
#104=CIRCLE('',#235,0.8);
#105=CIRCLE('',#237,0.8);
#106=CIRCLE('',#239,0.8);
#107=CIRCLE('',#241,0.8);
#108=CIRCLE('',#243,0.8);
#109=CIRCLE('',#245,52.5);
#110=CIRCLE('',#246,53.3);
#111=CIRCLE('',#248,47.5571507854246);
#112=CIRCLE('',#250,47.3823193302003);
#113=CIRCLE('',#252,46.2);
#114=CIRCLE('',#254,46.);
#115=CIRCLE('',#256,46.);
#116=CIRCLE('',#258,46.2);
#117=CIRCLE('',#260,47.9063669012599);
#118=CIRCLE('',#262,48.7842624741742);
#119=CIRCLE('',#264,54.4262260107559);
#120=CIRCLE('',#266,54.5296441875187);
#121=CIRCLE('',#268,57.5);
#122=VERTEX_POINT('',#350);
#123=VERTEX_POINT('',#353);
#124=VERTEX_POINT('',#356);
#125=VERTEX_POINT('',#359);
#126=VERTEX_POINT('',#362);
#127=VERTEX_POINT('',#365);
#128=VERTEX_POINT('',#368);
#129=VERTEX_POINT('',#370);
#130=VERTEX_POINT('',#373);
#131=VERTEX_POINT('',#376);
#132=VERTEX_POINT('',#379);
#133=VERTEX_POINT('',#382);
#134=VERTEX_POINT('',#385);
#135=VERTEX_POINT('',#388);
#136=VERTEX_POINT('',#391);
#137=VERTEX_POINT('',#394);
#138=VERTEX_POINT('',#397);
#139=VERTEX_POINT('',#400);
#140=VERTEX_POINT('',#403);
#141=EDGE_CURVE('',#122,#122,#103,.T.);
#142=EDGE_CURVE('',#123,#123,#104,.T.);
#143=EDGE_CURVE('',#124,#124,#105,.T.);
#144=EDGE_CURVE('',#125,#125,#106,.T.);
#145=EDGE_CURVE('',#126,#126,#107,.T.);
#146=EDGE_CURVE('',#127,#127,#108,.T.);
#147=EDGE_CURVE('',#128,#128,#109,.T.);
#148=EDGE_CURVE('',#129,#129,#110,.T.);
#149=EDGE_CURVE('',#130,#130,#111,.T.);
#150=EDGE_CURVE('',#131,#131,#112,.T.);
#151=EDGE_CURVE('',#132,#132,#113,.T.);
#152=EDGE_CURVE('',#133,#133,#114,.T.);
#153=EDGE_CURVE('',#134,#134,#115,.T.);
#154=EDGE_CURVE('',#135,#135,#116,.T.);
#155=EDGE_CURVE('',#136,#136,#117,.T.);
#156=EDGE_CURVE('',#137,#137,#118,.T.);
#157=EDGE_CURVE('',#138,#138,#119,.T.);
#158=EDGE_CURVE('',#139,#139,#120,.T.);
#159=EDGE_CURVE('',#140,#140,#121,.T.);
#160=ORIENTED_EDGE('',*,*,#141,.T.);
#161=ORIENTED_EDGE('',*,*,#142,.F.);
#162=ORIENTED_EDGE('',*,*,#141,.F.);
#163=ORIENTED_EDGE('',*,*,#143,.T.);
#164=ORIENTED_EDGE('',*,*,#144,.F.);
#165=ORIENTED_EDGE('',*,*,#143,.F.);
#166=ORIENTED_EDGE('',*,*,#145,.T.);
#167=ORIENTED_EDGE('',*,*,#146,.F.);
#168=ORIENTED_EDGE('',*,*,#145,.F.);
#169=ORIENTED_EDGE('',*,*,#147,.F.);
#170=ORIENTED_EDGE('',*,*,#148,.T.);
#171=ORIENTED_EDGE('',*,*,#149,.F.);
#172=ORIENTED_EDGE('',*,*,#147,.T.);
#173=ORIENTED_EDGE('',*,*,#150,.F.);
#174=ORIENTED_EDGE('',*,*,#149,.T.);
#175=ORIENTED_EDGE('',*,*,#150,.T.);
#176=ORIENTED_EDGE('',*,*,#151,.F.);
#177=ORIENTED_EDGE('',*,*,#152,.F.);
#178=ORIENTED_EDGE('',*,*,#151,.T.);
#179=ORIENTED_EDGE('',*,*,#153,.F.);
#180=ORIENTED_EDGE('',*,*,#152,.T.);
#181=ORIENTED_EDGE('',*,*,#154,.F.);
#182=ORIENTED_EDGE('',*,*,#153,.T.);
#183=ORIENTED_EDGE('',*,*,#155,.F.);
#184=ORIENTED_EDGE('',*,*,#154,.T.);
#185=ORIENTED_EDGE('',*,*,#156,.F.);
#186=ORIENTED_EDGE('',*,*,#155,.T.);
#187=ORIENTED_EDGE('',*,*,#157,.F.);
#188=ORIENTED_EDGE('',*,*,#156,.T.);
#189=ORIENTED_EDGE('',*,*,#158,.F.);
#190=ORIENTED_EDGE('',*,*,#157,.T.);
#191=ORIENTED_EDGE('',*,*,#159,.F.);
#192=ORIENTED_EDGE('',*,*,#158,.T.);
#193=ORIENTED_EDGE('',*,*,#159,.T.);
#194=ORIENTED_EDGE('',*,*,#142,.T.);
#195=ORIENTED_EDGE('',*,*,#144,.T.);
#196=ORIENTED_EDGE('',*,*,#146,.T.);
#197=ORIENTED_EDGE('',*,*,#148,.F.);
#198=CONICAL_SURFACE('',#232,0.4,59.);
#199=CONICAL_SURFACE('',#236,0.4,59.);
#200=CONICAL_SURFACE('',#240,0.4,59.);
#201=CONICAL_SURFACE('',#244,52.9,2.99313200597907);
#202=CONICAL_SURFACE('',#247,50.0285753927123,29.0546040990771);
#203=CONICAL_SURFACE('',#263,51.6052442424651,28.6104596659652);
#204=CONICAL_SURFACE('',#267,56.0148220937594,11.0937230115579);
#205=ADVANCED_FACE('',(#46),#198,.F.);
#206=ADVANCED_FACE('',(#47,#23),#42,.F.);
#207=ADVANCED_FACE('',(#48),#199,.F.);
#208=ADVANCED_FACE('',(#49,#24),#43,.F.);
#209=ADVANCED_FACE('',(#50),#200,.F.);
#210=ADVANCED_FACE('',(#51,#25),#44,.F.);
#211=ADVANCED_FACE('',(#52,#26),#201,.F.);
#212=ADVANCED_FACE('',(#53,#27),#202,.F.);
#213=ADVANCED_FACE('',(#54,#28),#18,.F.);
#214=ADVANCED_FACE('',(#55,#29),#15,.T.);
#215=ADVANCED_FACE('',(#56,#30),#19,.T.);
#216=ADVANCED_FACE('',(#57,#31),#45,.F.);
#217=ADVANCED_FACE('',(#58,#32),#20,.T.);
#218=ADVANCED_FACE('',(#59,#33),#16,.T.);
#219=ADVANCED_FACE('',(#60,#34),#21,.T.);
#220=ADVANCED_FACE('',(#61,#35),#203,.T.);
#221=ADVANCED_FACE('',(#62,#36),#22,.T.);
#222=ADVANCED_FACE('',(#63,#37),#204,.T.);
#223=ADVANCED_FACE('',(#64,#38,#39,#40,#41),#17,.T.);
#224=CLOSED_SHELL('',(#205,#206,#207,#208,#209,#210,#211,#212,#213,#214,
#215,#216,#217,#218,#219,#220,#221,#222,#223));
#225=DATE_TIME_ROLE('creation_date');
#226=APPLIED_DATE_AND_TIME_ASSIGNMENT(#227,#225,(#420));
#227=DATE_AND_TIME(#228,#229);
#228=CALENDAR_DATE(2020,2,5);
#229=LOCAL_TIME(19,2,9.,#230);
#230=COORDINATED_UNIVERSAL_TIME_OFFSET(0,0,.BEHIND.);
#231=AXIS2_PLACEMENT_3D('placement',#348,#270,#271);
#232=AXIS2_PLACEMENT_3D('',#349,#272,#273);
#233=AXIS2_PLACEMENT_3D('',#351,#274,#275);
#234=AXIS2_PLACEMENT_3D('',#352,#276,#277);
#235=AXIS2_PLACEMENT_3D('',#354,#278,#279);
#236=AXIS2_PLACEMENT_3D('',#355,#280,#281);
#237=AXIS2_PLACEMENT_3D('',#357,#282,#283);
#238=AXIS2_PLACEMENT_3D('',#358,#284,#285);
#239=AXIS2_PLACEMENT_3D('',#360,#286,#287);
#240=AXIS2_PLACEMENT_3D('',#361,#288,#289);
#241=AXIS2_PLACEMENT_3D('',#363,#290,#291);
#242=AXIS2_PLACEMENT_3D('',#364,#292,#293);
#243=AXIS2_PLACEMENT_3D('',#366,#294,#295);
#244=AXIS2_PLACEMENT_3D('',#367,#296,#297);
#245=AXIS2_PLACEMENT_3D('',#369,#298,#299);
#246=AXIS2_PLACEMENT_3D('',#371,#300,#301);
#247=AXIS2_PLACEMENT_3D('',#372,#302,#303);
#248=AXIS2_PLACEMENT_3D('',#374,#304,#305);
#249=AXIS2_PLACEMENT_3D('',#375,#306,#307);
#250=AXIS2_PLACEMENT_3D('',#377,#308,#309);
#251=AXIS2_PLACEMENT_3D('',#378,#310,#311);
#252=AXIS2_PLACEMENT_3D('',#380,#312,#313);
#253=AXIS2_PLACEMENT_3D('',#381,#314,#315);
#254=AXIS2_PLACEMENT_3D('',#383,#316,#317);
#255=AXIS2_PLACEMENT_3D('',#384,#318,#319);
#256=AXIS2_PLACEMENT_3D('',#386,#320,#321);
#257=AXIS2_PLACEMENT_3D('',#387,#322,#323);
#258=AXIS2_PLACEMENT_3D('',#389,#324,#325);
#259=AXIS2_PLACEMENT_3D('',#390,#326,#327);
#260=AXIS2_PLACEMENT_3D('',#392,#328,#329);
#261=AXIS2_PLACEMENT_3D('',#393,#330,#331);
#262=AXIS2_PLACEMENT_3D('',#395,#332,#333);
#263=AXIS2_PLACEMENT_3D('',#396,#334,#335);
#264=AXIS2_PLACEMENT_3D('',#398,#336,#337);
#265=AXIS2_PLACEMENT_3D('',#399,#338,#339);
#266=AXIS2_PLACEMENT_3D('',#401,#340,#341);
#267=AXIS2_PLACEMENT_3D('',#402,#342,#343);
#268=AXIS2_PLACEMENT_3D('',#404,#344,#345);
#269=AXIS2_PLACEMENT_3D('',#405,#346,#347);
#270=DIRECTION('axis',(0.,0.,1.));
#271=DIRECTION('refdir',(1.,0.,0.));
#272=DIRECTION('center_axis',(0.,-1.,0.));
#273=DIRECTION('ref_axis',(1.,0.,0.));
#274=DIRECTION('center_axis',(0.,-1.,0.));
#275=DIRECTION('ref_axis',(1.,0.,0.));
#276=DIRECTION('center_axis',(0.,-1.,0.));
#277=DIRECTION('ref_axis',(1.,0.,0.));
#278=DIRECTION('center_axis',(0.,1.,0.));
#279=DIRECTION('ref_axis',(1.,0.,0.));
#280=DIRECTION('center_axis',(0.,-1.,0.));
#281=DIRECTION('ref_axis',(1.,0.,0.));
#282=DIRECTION('center_axis',(0.,-1.,0.));
#283=DIRECTION('ref_axis',(1.,0.,0.));
#284=DIRECTION('center_axis',(0.,-1.,0.));
#285=DIRECTION('ref_axis',(1.,0.,0.));
#286=DIRECTION('center_axis',(0.,1.,0.));
#287=DIRECTION('ref_axis',(1.,0.,0.));
#288=DIRECTION('center_axis',(0.,-1.,0.));
#289=DIRECTION('ref_axis',(1.,0.,0.));
#290=DIRECTION('center_axis',(0.,-1.,0.));
#291=DIRECTION('ref_axis',(1.,0.,0.));
#292=DIRECTION('center_axis',(0.,-1.,0.));
#293=DIRECTION('ref_axis',(1.,0.,0.));
#294=DIRECTION('center_axis',(0.,1.,0.));
#295=DIRECTION('ref_axis',(1.,0.,0.));
#296=DIRECTION('center_axis',(0.,-1.,0.));
#297=DIRECTION('ref_axis',(1.,0.,0.));
#298=DIRECTION('center_axis',(0.,-1.,0.));
#299=DIRECTION('ref_axis',(1.,0.,0.));
#300=DIRECTION('center_axis',(0.,-1.,0.));
#301=DIRECTION('ref_axis',(1.,0.,0.));
#302=DIRECTION('center_axis',(0.,-1.,0.));
#303=DIRECTION('ref_axis',(1.,0.,0.));
#304=DIRECTION('center_axis',(0.,-1.,0.));
#305=DIRECTION('ref_axis',(1.,0.,0.));
#306=DIRECTION('center_axis',(0.,-1.,0.));
#307=DIRECTION('ref_axis',(0.,0.,-1.));
#308=DIRECTION('center_axis',(0.,-1.,0.));
#309=DIRECTION('ref_axis',(1.,0.,0.));
#310=DIRECTION('center_axis',(0.,-1.,0.));
#311=DIRECTION('ref_axis',(0.,0.,-1.));
#312=DIRECTION('center_axis',(0.,-1.,0.));
#313=DIRECTION('ref_axis',(1.,0.,0.));
#314=DIRECTION('center_axis',(0.,-1.,0.));
#315=DIRECTION('ref_axis',(0.,0.,-1.));
#316=DIRECTION('center_axis',(0.,-1.,0.));
#317=DIRECTION('ref_axis',(1.,0.,0.));
#318=DIRECTION('center_axis',(0.,-1.,0.));
#319=DIRECTION('ref_axis',(1.,0.,0.));
#320=DIRECTION('center_axis',(0.,-1.,0.));
#321=DIRECTION('ref_axis',(1.,0.,0.));
#322=DIRECTION('center_axis',(0.,-1.,0.));
#323=DIRECTION('ref_axis',(0.,0.,-1.));
#324=DIRECTION('center_axis',(0.,-1.,0.));
#325=DIRECTION('ref_axis',(1.,0.,0.));
#326=DIRECTION('center_axis',(0.,1.,0.));
#327=DIRECTION('ref_axis',(0.,0.,1.));
#328=DIRECTION('center_axis',(0.,-1.,0.));
#329=DIRECTION('ref_axis',(1.,0.,0.));
#330=DIRECTION('center_axis',(0.,-1.,0.));
#331=DIRECTION('ref_axis',(0.,0.,-1.));
#332=DIRECTION('center_axis',(0.,-1.,0.));
#333=DIRECTION('ref_axis',(1.,0.,0.));
#334=DIRECTION('center_axis',(0.,-1.,0.));
#335=DIRECTION('ref_axis',(1.,0.,0.));
#336=DIRECTION('center_axis',(0.,-1.,0.));
#337=DIRECTION('ref_axis',(1.,0.,0.));
#338=DIRECTION('center_axis',(0.,-1.,0.));
#339=DIRECTION('ref_axis',(0.,0.,-1.));
#340=DIRECTION('center_axis',(0.,-1.,0.));
#341=DIRECTION('ref_axis',(1.,0.,0.));
#342=DIRECTION('center_axis',(0.,-1.,0.));
#343=DIRECTION('ref_axis',(1.,0.,0.));
#344=DIRECTION('center_axis',(0.,-1.,0.));
#345=DIRECTION('ref_axis',(1.,0.,0.));
#346=DIRECTION('center_axis',(0.,-1.,0.));
#347=DIRECTION('ref_axis',(0.,0.,-1.));
#348=CARTESIAN_POINT('',(0.,0.,0.));
#349=CARTESIAN_POINT('Origin',(27.25,6.24034424761102,47.1983845062519));
#350=CARTESIAN_POINT('',(28.05,6.,47.1983845062519));
#351=CARTESIAN_POINT('Origin',(27.25,6.,47.1983845062519));
#352=CARTESIAN_POINT('Origin',(27.25,3.,47.1983845062519));
#353=CARTESIAN_POINT('',(28.05,-1.28587913910472E-15,47.1983845062519));
#354=CARTESIAN_POINT('Origin',(27.25,-1.11022302462516E-15,47.1983845062519));
#355=CARTESIAN_POINT('Origin',(-54.5,6.24034424761102,0.));
#356=CARTESIAN_POINT('',(-53.7,6.,0.));
#357=CARTESIAN_POINT('Origin',(-54.5,6.,0.));
#358=CARTESIAN_POINT('Origin',(-54.5,3.,0.));
#359=CARTESIAN_POINT('',(-53.7,-1.28587913910472E-15,0.));
#360=CARTESIAN_POINT('Origin',(-54.5,-1.11022302462516E-15,0.));
#361=CARTESIAN_POINT('Origin',(27.25,6.24034424761102,-47.1983845062519));
#362=CARTESIAN_POINT('',(28.05,6.,-47.1983845062519));
#363=CARTESIAN_POINT('Origin',(27.25,6.,-47.1983845062519));
#364=CARTESIAN_POINT('Origin',(27.25,3.,-47.1983845062519));
#365=CARTESIAN_POINT('',(28.05,-1.28587913910472E-15,-47.1983845062519));
#366=CARTESIAN_POINT('Origin',(27.25,-1.11022302462516E-15,-47.1983845062519));
#367=CARTESIAN_POINT('Origin',(0.,7.65,0.));
#368=CARTESIAN_POINT('',(52.5,15.3,0.));
#369=CARTESIAN_POINT('Origin',(0.,15.3,0.));
#370=CARTESIAN_POINT('',(53.3,-1.28587913910472E-15,0.));
#371=CARTESIAN_POINT('Origin',(0.,-1.28587913910472E-15,0.));
#372=CARTESIAN_POINT('Origin',(0.,19.7485642931179,0.));
#373=CARTESIAN_POINT('',(47.5571507854246,24.1971285862357,0.));
#374=CARTESIAN_POINT('Origin',(0.,24.1971285862357,0.));
#375=CARTESIAN_POINT('Origin',(0.,24.1,0.));
#376=CARTESIAN_POINT('',(47.3823193302003,24.3,0.));
#377=CARTESIAN_POINT('Origin',(0.,24.3,0.));
#378=CARTESIAN_POINT('Origin',(46.2,24.3,0.));
#379=CARTESIAN_POINT('',(46.2,24.3,0.));
#380=CARTESIAN_POINT('Origin',(0.,24.3,0.));
#381=CARTESIAN_POINT('Origin',(0.,24.5,0.));
#382=CARTESIAN_POINT('',(46.,24.5,0.));
#383=CARTESIAN_POINT('Origin',(0.,24.5,0.));
#384=CARTESIAN_POINT('Origin',(0.,25.3,0.));
#385=CARTESIAN_POINT('',(46.,26.1,0.));
#386=CARTESIAN_POINT('Origin',(0.,26.1,0.));
#387=CARTESIAN_POINT('Origin',(0.,26.1,0.));
#388=CARTESIAN_POINT('',(46.2,26.3,0.));
#389=CARTESIAN_POINT('Origin',(0.,26.3,0.));
#390=CARTESIAN_POINT('Origin',(47.9063669012599,26.3,0.));
#391=CARTESIAN_POINT('',(47.9063669012599,26.3,0.));
#392=CARTESIAN_POINT('Origin',(0.,26.3,0.));
#393=CARTESIAN_POINT('Origin',(0.,25.3,0.));
#394=CARTESIAN_POINT('',(48.7842624741742,25.7788521306806,0.));
#395=CARTESIAN_POINT('Origin',(0.,25.7788521306806,0.));
#396=CARTESIAN_POINT('Origin',(0.,20.6070522221473,0.));
#397=CARTESIAN_POINT('',(54.4262260107559,15.4352523136141,0.));
#398=CARTESIAN_POINT('Origin',(0.,15.4352523136141,0.));
#399=CARTESIAN_POINT('Origin',(0.,14.9564001829335,0.));
#400=CARTESIAN_POINT('',(54.5296441875187,15.1488146436545,0.));
#401=CARTESIAN_POINT('Origin',(0.,15.1488146436545,0.));
#402=CARTESIAN_POINT('Origin',(0.,7.57440732182727,0.));
#403=CARTESIAN_POINT('',(57.5,0.,0.));
#404=CARTESIAN_POINT('Origin',(0.,0.,0.));
#405=CARTESIAN_POINT('Origin',(53.3,-1.28587913910472E-15,0.));
#406=UNCERTAINTY_MEASURE_WITH_UNIT(LENGTH_MEASURE(0.01),#410,
'DISTANCE_ACCURACY_VALUE',
'Maximum model space distance between geometric entities at asserted c
onnectivities');
#407=UNCERTAINTY_MEASURE_WITH_UNIT(LENGTH_MEASURE(1.E-6),#410,
'DISTANCE_ACCURACY_VALUE',
'Maximum model space distance between geometric entities at asserted c
onnectivities');
#408=(
GEOMETRIC_REPRESENTATION_CONTEXT(3)
GLOBAL_UNCERTAINTY_ASSIGNED_CONTEXT((#406))
GLOBAL_UNIT_ASSIGNED_CONTEXT((#410,#413,#411))
REPRESENTATION_CONTEXT('','3D')
);
#409=(
GEOMETRIC_REPRESENTATION_CONTEXT(3)
GLOBAL_UNCERTAINTY_ASSIGNED_CONTEXT((#407))
GLOBAL_UNIT_ASSIGNED_CONTEXT((#410,#413,#411))
REPRESENTATION_CONTEXT('','3D')
);
#410=(
LENGTH_UNIT()
NAMED_UNIT(*)
SI_UNIT(.MILLI.,.METRE.)
);
#411=(
NAMED_UNIT(*)
SI_UNIT($,.STERADIAN.)
SOLID_ANGLE_UNIT()
);
#412=DIMENSIONAL_EXPONENTS(0.,0.,0.,0.,0.,0.,0.);
#413=(
CONVERSION_BASED_UNIT('degree',#415)
NAMED_UNIT(#412)
PLANE_ANGLE_UNIT()
);
#414=(
NAMED_UNIT(*)
PLANE_ANGLE_UNIT()
SI_UNIT($,.RADIAN.)
);
#415=PLANE_ANGLE_MEASURE_WITH_UNIT(PLANE_ANGLE_MEASURE(0.01745329252),#414);
#416=SHAPE_DEFINITION_REPRESENTATION(#417,#418);
#417=PRODUCT_DEFINITION_SHAPE('',$,#420);
#418=SHAPE_REPRESENTATION('',(#231),#408);
#419=PRODUCT_DEFINITION_CONTEXT('part definition',#424,'design');
#420=PRODUCT_DEFINITION('Morini Cockpit Aluring',
'Morini Cockpit Aluring',#421,#419);
#421=PRODUCT_DEFINITION_FORMATION('',$,#426);
#422=PRODUCT_RELATED_PRODUCT_CATEGORY('Morini Cockpit Aluring',
'Morini Cockpit Aluring',(#426));
#423=APPLICATION_PROTOCOL_DEFINITION('international standard',
'automotive_design',2009,#424);
#424=APPLICATION_CONTEXT(
'Core Data for Automotive Mechanical Design Process');
#425=PRODUCT_CONTEXT('part definition',#424,'mechanical');
#426=PRODUCT('Morini Cockpit Aluring','Morini Cockpit Aluring',$,(#425));
#427=PRESENTATION_STYLE_ASSIGNMENT((#428));
#428=SURFACE_STYLE_USAGE(.BOTH.,#429);
#429=SURFACE_SIDE_STYLE('',(#430));
#430=SURFACE_STYLE_FILL_AREA(#431);
#431=FILL_AREA_STYLE('',(#432));
#432=FILL_AREA_STYLE_COLOUR('',#433);
#433=COLOUR_RGB('',0.749019607843137,0.749019607843137,0.749019607843137);
ENDSEC;
END-ISO-10303-21;
