  0
SECTION
  2
HEADER
  9
$ACADVER
  1
AC1012
  9
$DWGCODEPAGE
  3
ansi_1252
  9
$INSBASE
 10
0.0
 20
0.0
 30
0.0
  9
$EXTMIN
 10
0.0
 20
0.0
 30
0.0
  9
$EXTMAX
 10
420.0
 20
297.0
 30
0.0
  9
$LIMMIN
 10
0.0
 20
0.0
  9
$LIMMAX
 10
0.0
 20
0.0
  9
$ORTHOMODE
 70
         0
  9
$REGENMODE
 70
         1
  9
$FILLMODE
 70
         1
  9
$QTEXTMODE
 70
         0
  9
$MIRRTEXT
 70
         1
  9
$DRAGMODE
 70
         2
  9
$LTSCALE
 40
1.0
  9
$OSMODE
 70
         0
  9
$ATTMODE
 70
         1
  9
$TEXTSIZE
 40
3.5
  9
$TRACEWID
 40
0.05
  9
$TEXTSTYLE
  7
STANDARD
  9
$CLAYER
  8
0
  9
$CELTYPE
  6
CONTINUOUS
  9
$CECOLOR
 62
       256
  9
$CELTSCALE
 40
1.0
  9
$DELOBJ
 70
         1
  9
$DISPSILH
 70
         0
  9
$DIMSCALE
 40
1.0
  9
$DIMASZ
 40
6.0
  9
$DIMEXO
 40
1.0
  9
$DIMDLI
 40
0.38
  9
$DIMRND
 40
0.0
  9
$DIMDLE
 40
1.0
  9
$DIMEXE
 40
0.18
  9
$DIMTP
 40
0.0
  9
$DIMTM
 40
0.0
  9
$DIMTXT
 40
3.5
  9
$DIMCEN
 40
0.09
  9
$DIMTSZ
 40
0.0
  9
$DIMTOL
 70
         0
  9
$DIMLIM
 70
         0
  9
$DIMTIH
 70
         1
  9
$DIMTOH
 70
         1
  9
$DIMSE1
 70
         0
  9
$DIMSE2
 70
         0
  9
$DIMTAD
 70
         1
  9
$DIMZIN
 70
         0
  9
$DIMBLK
  1

  9
$DIMASO
 70
         1
  9
$DIMSHO
 70
         1
  9
$DIMPOST
  1

  9
$DIMAPOST
  1

  9
$DIMALT
 70
         0
  9
$DIMALTD
 70
         2
  9
$DIMALTF
 40
0.0394
  9
$DIMLFAC
 40
1.0
  9
$DIMTOFL
 70
         0
  9
$DIMTVP
 40
0.0
  9
$DIMTIX
 70
         0
  9
$DIMSOXD
 70
         0
  9
$DIMSAH
 70
         0
  9
$DIMBLK1
  1

  9
$DIMBLK2
  1

  9
$DIMSTYLE
  2
STANDARD
  9
$DIMCLRD
 70
         0
  9
$DIMCLRE
 70
         0
  9
$DIMCLRT
 70
         0
  9
$DIMTFAC
 40
1.0
  9
$DIMGAP
 40
1.0
  9
$DIMJUST
 70
         0
  9
$DIMSD1
 70
         0
  9
$DIMSD2
 70
         0
  9
$DIMTOLJ
 70
         1
  9
$DIMTZIN
 70
         0
  9
$DIMALTZ
 70
         0
  9
$DIMALTTZ
 70
         0
  9
$DIMFIT
 70
         3
  9
$DIMUPT
 70
         0
  9
$DIMUNIT
 70
         2
  9
$DIMDEC
 70
         4
  9
$DIMTDEC
 70
         4
  9
$DIMALTU
 70
         2
  9
$DIMALTTD
 70
         2
  9
$DIMTXSTY
  7
STANDARD
  9
$DIMAUNIT
 70
         0
  9
$LUNITS
 70
         2
  9
$LUPREC
 70
         2
  9
$SKETCHINC
 40
0.1
  9
$FILLETRAD
 40
0.0
  9
$AUNITS
 70
         0
  9
$AUPREC
 70
         2
  9
$MENU
  1
acad
  9
$ELEVATION
 40
0.0
  9
$PELEVATION
 40
0.0
  9
$THICKNESS
 40
0.0
  9
$LIMCHECK
 70
         0
  9
$BLIPMODE
 70
         1
  9
$CHAMFERA
 40
0.0
  9
$CHAMFERB
 40
0.0
  9
$CHAMFERC
 40
0.0
  9
$CHAMFERD
 40
0.0
  9
$SKPOLY
 70
         0
  9
$TDCREATE
 40
0.000000000
  9
$TDUPDATE
 40
0.000000000
  9
$TDINDWG
 40
0.0000000000
  9
$TDUSRTIMER
 40
0.0000000000
  9
$USRTIMER
 70
         1
  9
$ANGBASE
 50
0.0
  9
$ANGDIR
 70
         0
  9
$PDMODE
 70
         0
  9
$PDSIZE
 40
-1.0
  9
$PLINEWID
 40
0.0
  9
$COORDS
 70
         0
  9
$SPLFRAME
 70
         0
  9
$SPLINETYPE
 70
         6
  9
$SPLINESEGS
 70
         8
  9
$ATTDIA
 70
         0
  9
$ATTREQ
 70
         1
  9
$HANDLING
 70
         1
  9
$HANDSEED
  5
148
  9
$SURFTAB1
 70
         6
  9
$SURFTAB2
 70
         6
  9
$SURFTYPE
 70
         6
  9
$SURFU
 70
         6
  9
$SURFV
 70
         6
  9
$UCSNAME
  2

  9
$UCSORG
 10
0.0
 20
0.0
 30
0.0
  9
$UCSXDIR
 10
1.0
 20
0.0
 30
0.0
  9
$UCSYDIR
 10
0.0
 20
1.0
 30
0.0
  9
$PUCSNAME
  2

  9
$PUCSORG
 10
0.0
 20
0.0
 30
0.0
  9
$PUCSXDIR
 10
1.0
 20
0.0
 30
0.0
  9
$PUCSYDIR
 10
0.0
 20
1.0
 30
0.0
  9
$USERI1
 70
         0
  9
$USERI2
 70
         0
  9
$USERI3
 70
         0
  9
$USERI4
 70
         0
  9
$USERI5
 70
         0
  9
$USERR1
 40
0.0
  9
$USERR2
 40
0.0
  9
$USERR3
 40
0.0
  9
$USERR4
 40
0.0
  9
$USERR5
 40
0.0
  9
$WORLDVIEW
 70
         1
  9
$SHADEDGE
 70
         3
  9
$SHADEDIF
 70
        70
  9
$TILEMODE
 70
         1
  9
$MAXACTVP
 70
        16
  9
$PINSBASE
 10
0.0
 20
0.0
 30
0.0
  9
$PLIMCHECK
 70
         0
  9
$PEXTMIN
 10
1.0000000000E+20
 20
1.0000000000E+20
 30
1.0000000000E+20
  9
$PEXTMAX
 10
-1.0000000000E+20
 20
-1.0000000000E+20
 30
-1.0000000000E+20
  9
$PLIMMIN
 10
0.0
 20
0.0
  9
$PLIMMAX
 10
12.0
 20
9.0
  9
$UNITMODE
 70
         0
  9
$VISRETAIN
 70
         0
  9
$PLINEGEN
 70
         1
  9
$PSLTSCALE
 70
         1
  9
$TREEDEPTH
 70
      3020
  9
$PICKSTYLE
 70
         1
  9
$CMLSTYLE
  2
STANDARD
  9
$CMLJUST
 70
         0
  9
$CMLSCALE
 40
1.0
  9
$SAVEIMAGES
 70
         0
  0
ENDSEC
  0
SECTION
  2
CLASSES
  0
CLASS
  1
LWPOLYLINE
  2
AcDbPolyline
  3
"AutoCAD"
 90
    32768
280
         0
281
         1
  0
CLASS
  1
IMAGE
  2
AcDbRasterImage
  3
ISM
 90
    32895
280
         0
281
         1
  0
CLASS
  1
OLE2FRAME
  2
AcDbOle2Frame
  3
""
 90
    32768
280
         0
281
         1
  0
CLASS
  1
HATCH
  2
AcDbHatch
  3
"ACAD_SEDONA"
 90
    32768
280
         0
281
         1
  0
CLASS
  1
DICTIONARYVAR
  2
AcDbDictionaryVar
  3
"AutoCAD"
 90
    32768
280
         0
281
         0
  0
CLASS
  1
RASTERVARIABLES
  2
AcDbRasterVariables
  3
ISM
 90
    32768
280
         0
281
         0
  0
CLASS
  1
IMAGEDEF
  2
AcDbRasterImageDef
  3
ISM
 90
    32768
280
         0
281
         0
  0
CLASS
  1
IMAGEDEF_REACTOR
  2
AcDbRasterImageDefReactor
  3
ISM
 90
    32769
280
         0
281
         0
  0
CLASS
  1
IDBUFFER
  2
AcDbIdBuffer
  3
"Acad"
 90
    32768
280
         0
281
         0
  0
CLASS
  1
SPATIAL_FILTER
  2
AcDbSpatialFilter
  3
"Acad"
 90
    32768
280
         0
281
         0
  0
CLASS
  1
XRECORD
  2
AcDbXrecord
  3
"<Built In>"
 90
    32768
280
         0
281
         0
  0
CLASS
  1
SORTENTSTABLE
  2
AcDbSortentsTable
  3
"AutoCAD"
 90
    32768
280
         0
281
         0
  0
CLASS
  1
LAYER_INDEX
  2
AcDbLayerIndex
  3
"Acad"
 90
    32768
280
         0
281
         0
  0
CLASS
  1
SPATIAL_INDEX
  2
AcDbSpatialIndex
  3
"Acad"
 90
    32768
280
         0
281
         0
  0
CLASS
  1
OBJECT_PTR
  2
CAseDLPNTableRecord
  3
"ASE-LPNTableRecord"
 90
    32769
280
         0
281
         0
  0
CLASS
  1
LAYOUT
  2
AcDbLayout
  3
"AutoCAD 2000"
 90
    32768
280
         0
281
         0
  0
CLASS
  1
PLOTSETTINGS
  2
AcDbPlotSettings
  3
"AutoCAD 2000"
 90
    32768
280
         0
281
         0
  0
CLASS
  1
ACDBDICTIONARYWDFLT
  2
AcDbDictionaryWithDefault
  3
"AutoCAD 2000"
 90
    32768
280
         0
281
         0
  0
CLASS
  1
ACDBPLACEHOLDER
  2
AcDbPlaceHolder
  3
"AutoCAD 2000"
 90
    32768
280
         0
281
         0
  0
CLASS
  1
VBA_PROJECT
  2
AcDbVbaProject
  3
"acadvba"
 90
    32768
280
         0
281
         0
  0
CLASS
  1
WIPEOUT
  2
AcDbWipeout
  3
WipeOut|AutoCAD Express Tool|expresstools@autodesk.com
 90
    32895
280
         0
281
         1
  0
CLASS
  1
WIPEOUTVARIABLES
  2
AcDbWipeoutVariables
  3
WipeOut|AutoCAD Express Tool|expresstools@autodesk.com
 90
    32768
280
         0
281
         0
  0
CLASS
  1
RTEXT
  2
RText
  3
RText|AutoCAD Express Tool|expresstools@autodesk.com
 90
    32768
280
         0
281
         1
  0
CLASS
  1
ARCALIGNEDTEXT
  2
AcDbArcAlignedText
  3
ATEXT|AutoCAD Express Tool|expresstools@autodesk.com
 90
    32768
280
         0
281
         1
  0
ENDSEC
  0
SECTION
  2
TABLES
  0
TABLE
  2
VPORT
  5
7
100
AcDbSymbolTable
 70
         1
  0
VPORT
  5
15
100
AcDbSymbolTableRecord
100
AcDbViewportTableRecord
  2
*ACTIVE
 70
         0
 10
0.0
 20
0.0
 11
1.0
 21
1.0
 12
210.0
 22
148.5
 13
0.0
 23
0.0
 14
1.0
 24
1.0
 15
0.0
 25
0.0
 16
0.0
 26
0.0
 36
1.0
 17
0.0
 27
0.0
 37
0.0
 40
297.0
 41
0.7071428571
 42
50.0
 43
0.0
 44
0.0
 50
0.0
 51
0.0
 71
         0
 72
      2000
 73
         1
 74
         1
 75
         0
 76
         0
 77
         0
 78
         0
  0
ENDTAB
  0
TABLE
  2
LTYPE
  5
4
100
AcDbSymbolTable
 70
         8
  0
LTYPE
  5
11
100
AcDbSymbolTableRecord
100
AcDbLinetypeTableRecord
  2
BYBLOCK
 70
        64
  3

 72
        65
 73
         0
 40
0.0
  0
LTYPE
  5
12
100
AcDbSymbolTableRecord
100
AcDbLinetypeTableRecord
  2
BYLAYER
 70
        64
  3

 72
        65
 73
         0
 40
0.0
  0
LTYPE
  5
13
100
AcDbSymbolTableRecord
100
AcDbLinetypeTableRecord
  2
CONTINUOUS
 70
        64
  3
Solid line
 72
        65
 73
         0
 40
0.0
  0
LTYPE
  5
1D
100
AcDbSymbolTableRecord
100
AcDbLinetypeTableRecord
  2
HIDDEN
 70
        64
  3
Hidden __ __ __ __ __ __ __ __ __ __ __ __ __ __
 72
        65
 73
         2
 40
1.905
 49
1.27
 74
         0
 49
-0.635
 74
         0
  0
LTYPE
  5
1E
100
AcDbSymbolTableRecord
100
AcDbLinetypeTableRecord
  2
PHANTOM
 70
        64
  3
Phantom ______  __  __  ______  __  __  ______
 72
        65
 73
         6
 40
12.7
 49
6.35
 74
         0
 49
-1.27
 74
         0
 49
1.27
 74
         0
 49
-1.27
 74
         0
 49
1.27
 74
         0
 49
-1.27
 74
         0
  0
LTYPE
  5
1F
100
AcDbSymbolTableRecord
100
AcDbLinetypeTableRecord
  2
CENTER
 70
        64
  3
Center ____ _ ____ _ ____ _ ____ _ ____ _ ____
 72
        65
 73
         4
 40
10.16
 49
6.35
 74
         0
 49
-1.27
 74
         0
 49
1.27
 74
         0
 49
-1.27
 74
         0
  0
LTYPE
  5
20
100
AcDbSymbolTableRecord
100
AcDbLinetypeTableRecord
  2
CENTERX2
 70
        64
  3
Center (2x) ________  __  ________  __  _____
 72
        65
 73
         4
 40
20.32
 49
12.7
 74
         0
 49
-2.54
 74
         0
 49
2.54
 74
         0
 49
-2.54
 74
         0
  0
LTYPE
  5
21
100
AcDbSymbolTableRecord
100
AcDbLinetypeTableRecord
  2
DOT2
 70
        64
  3
Dot (.5x) ........................................
 72
        65
 73
         2
 40
0.635
 49
0.0
 74
         0
 49
-0.635
 74
         0
  0
ENDTAB
  0
TABLE
  2
LAYER
  5
2
100
AcDbSymbolTable
 70
         3
  0
LAYER
  5
14
100
AcDbSymbolTableRecord
100
AcDbLayerTableRecord
  2
0
 70
         0
 62
         7
  6
CONTINUOUS
  0
LAYER
  5
23
100
AcDbSymbolTableRecord
100
AcDbLayerTableRecord
  2
DEFPOINTS
 70
         0
 62
         7
  6
CONTINUOUS
  0
LAYER
  5
24
100
AcDbSymbolTableRecord
100
AcDbLayerTableRecord
  2
FORMAT
 70
         0
 62
         7
  6
CONTINUOUS
  0
ENDTAB
  0
TABLE
  2
STYLE
  5
3
100
AcDbSymbolTable
 70
         2
  0
STYLE
  5
17
100
AcDbSymbolTableRecord
100
AcDbTextStyleTableRecord
  2
STANDARD
 70
         0
 40
0.0
 41
1.0
 50
0.0
 71
         0
 42
0.0
  3
txt
  4

  0
STYLE
  5
5A
100
AcDbSymbolTableRecord
100
AcDbTextStyleTableRecord
  2
SLDTEXTSTYLE0
 70
         0
 40
0.0
 41
0.75
 50
0.0
 71
         0
 42
0.0
  3
txt
  4

  0
ENDTAB
  0
TABLE
  2
VIEW
  5
5
100
AcDbSymbolTable
 70
         0
  0
ENDTAB
  0
TABLE
  2
UCS
  5
6
100
AcDbSymbolTable
 70
         0
  0
ENDTAB
  0
TABLE
  2
APPID
  5
8
100
AcDbSymbolTable
 70
         1
  0
APPID
  5
16
100
AcDbSymbolTableRecord
100
AcDbRegAppTableRecord
  2
ACAD
 70
         0
  0
ENDTAB
  0
TABLE
  2
DIMSTYLE
  5
9
100
AcDbSymbolTable
 70
         1
  0
DIMSTYLE
105
18
100
AcDbSymbolTableRecord
100
AcDbDimStyleTableRecord
  2
STANDARD
 70
         0
  3

  4

  5

  6

  7

 40
1.0
 41
0.18
 42
0.0625
 43
0.38
 44
0.18
 45
0.0
 46
0.0
 47
0.0
 48
0.0
 71
         0
 72
         0
 73
         1
 74
         1
 75
         0
 76
         0
 77
         0
 78
         0
140
0.18
141
0.09
142
0.0
143
25.4
144
1.0
145
0.0
146
1.0
147
0.09
170
         0
171
         2
172
         0
173
         0
174
         0
175
         0
176
         0
177
         0
178
         0
270
         2
271
         4
272
         4
273
         2
274
         2
275
         0
280
         0
281
         0
282
         0
283
         1
284
         0
285
         0
286
         0
287
         0
288
         0
340
17
  0
ENDTAB
  0
TABLE
  2
BLOCK_RECORD
  5
1
100
AcDbSymbolTable
 70
        28
  0
BLOCK_RECORD
  5
A
100
AcDbSymbolTableRecord
100
AcDbBlockTableRecord
  2
*MODEL_SPACE
  0
BLOCK_RECORD
  5
B
100
AcDbSymbolTableRecord
100
AcDbBlockTableRecord
  2
*PAPER_SPACE
  0
BLOCK_RECORD
  5
71
100
AcDbSymbolTableRecord
100
AcDbBlockTableRecord
  2
NOTE22
  0
BLOCK_RECORD
  5
75
100
AcDbSymbolTableRecord
100
AcDbBlockTableRecord
  2
NOTE23
  0
BLOCK_RECORD
  5
7A
100
AcDbSymbolTableRecord
100
AcDbBlockTableRecord
  2
NOTE25
  0
BLOCK_RECORD
  5
7E
100
AcDbSymbolTableRecord
100
AcDbBlockTableRecord
  2
NOTE26
  0
BLOCK_RECORD
  5
82
100
AcDbSymbolTableRecord
100
AcDbBlockTableRecord
  2
NOTE27
  0
BLOCK_RECORD
  5
86
100
AcDbSymbolTableRecord
100
AcDbBlockTableRecord
  2
NOTE28
  0
BLOCK_RECORD
  5
8A
100
AcDbSymbolTableRecord
100
AcDbBlockTableRecord
  2
NOTE29
  0
BLOCK_RECORD
  5
8E
100
AcDbSymbolTableRecord
100
AcDbBlockTableRecord
  2
NOTE30
  0
BLOCK_RECORD
  5
92
100
AcDbSymbolTableRecord
100
AcDbBlockTableRecord
  2
NOTE31
  0
BLOCK_RECORD
  5
96
100
AcDbSymbolTableRecord
100
AcDbBlockTableRecord
  2
NOTE32
  0
BLOCK_RECORD
  5
9A
100
AcDbSymbolTableRecord
100
AcDbBlockTableRecord
  2
NOTE33
  0
BLOCK_RECORD
  5
9E
100
AcDbSymbolTableRecord
100
AcDbBlockTableRecord
  2
NOTE34
  0
BLOCK_RECORD
  5
A2
100
AcDbSymbolTableRecord
100
AcDbBlockTableRecord
  2
NOTE35
  0
BLOCK_RECORD
  5
A7
100
AcDbSymbolTableRecord
100
AcDbBlockTableRecord
  2
NOTE37
  0
BLOCK_RECORD
  5
AB
100
AcDbSymbolTableRecord
100
AcDbBlockTableRecord
  2
NOTE38
  0
BLOCK_RECORD
  5
DE
100
AcDbSymbolTableRecord
100
AcDbBlockTableRecord
  2
SW_CENTERMARK0
  0
BLOCK_RECORD
  5
E6
100
AcDbSymbolTableRecord
100
AcDbBlockTableRecord
  2
SW_CENTERMARK1
  0
BLOCK_RECORD
  5
EE
100
AcDbSymbolTableRecord
100
AcDbBlockTableRecord
  2
SW_CENTERMARK2
  0
BLOCK_RECORD
  5
F6
100
AcDbSymbolTableRecord
100
AcDbBlockTableRecord
  2
SW_CENTERMARK3
  0
BLOCK_RECORD
  5
FE
100
AcDbSymbolTableRecord
100
AcDbBlockTableRecord
  2
SW_CENTERMARK4
  0
BLOCK_RECORD
  5
106
100
AcDbSymbolTableRecord
100
AcDbBlockTableRecord
  2
SW_CENTERMARK5
  0
BLOCK_RECORD
  5
10E
100
AcDbSymbolTableRecord
100
AcDbBlockTableRecord
  2
SW_CENTERMARK6
  0
BLOCK_RECORD
  5
116
100
AcDbSymbolTableRecord
100
AcDbBlockTableRecord
  2
SW_CENTERMARK7
  0
BLOCK_RECORD
  5
11E
100
AcDbSymbolTableRecord
100
AcDbBlockTableRecord
  2
SW_CENTERMARK8
  0
BLOCK_RECORD
  5
126
100
AcDbSymbolTableRecord
100
AcDbBlockTableRecord
  2
SW_CENTERMARK9
  0
BLOCK_RECORD
  5
12E
100
AcDbSymbolTableRecord
100
AcDbBlockTableRecord
  2
SW_CENTERMARK10
  0
BLOCK_RECORD
  5
136
100
AcDbSymbolTableRecord
100
AcDbBlockTableRecord
  2
SW_CENTERMARK11
  0
BLOCK_RECORD
  5
13E
100
AcDbSymbolTableRecord
100
AcDbBlockTableRecord
  2
SW_CENTERMARK12
  0
ENDTAB
  0
ENDSEC
  0
SECTION
  2
BLOCKS
  0
BLOCK
  5
D
100
AcDbEntity
  8
0
100
AcDbBlockBegin
  2
*MODEL_SPACE
 70
         0
 10
0.0
 20
0.0
 30
0.0
  3
*MODEL_SPACE
  1

  0
ENDBLK
  5
E
100
AcDbEntity
  8
0
100
AcDbBlockEnd
  0
BLOCK
  5
F
100
AcDbEntity
 67
         1
  8
0
100
AcDbBlockBegin
  2
*PAPER_SPACE
 70
         0
 10
0.0
 20
0.0
 30
0.0
  3
*PAPER_SPACE
  1

  0
ENDBLK
  5
10
100
AcDbEntity
 67
         1
  8
0
100
AcDbBlockEnd
  0
BLOCK
  5
72
100
AcDbEntity
  8
0
 62
         0
100
AcDbBlockBegin
  2
NOTE22
 70
         0
 10
0.0
 20
0.0
 30
0.0
  3
NOTE22
  1

  0
ENDBLK
  5
73
100
AcDbEntity
  8
0
100
AcDbBlockEnd
  0
BLOCK
  5
76
100
AcDbEntity
  8
0
 62
         0
100
AcDbBlockBegin
  2
NOTE23
 70
         0
 10
0.0
 20
0.0
 30
0.0
  3
NOTE23
  1

  0
ENDBLK
  5
77
100
AcDbEntity
  8
0
100
AcDbBlockEnd
  0
BLOCK
  5
7B
100
AcDbEntity
  8
0
 62
         0
100
AcDbBlockBegin
  2
NOTE25
 70
         0
 10
0.0
 20
0.0
 30
0.0
  3
NOTE25
  1

  0
ENDBLK
  5
7C
100
AcDbEntity
  8
0
100
AcDbBlockEnd
  0
BLOCK
  5
7F
100
AcDbEntity
  8
0
 62
         0
100
AcDbBlockBegin
  2
NOTE26
 70
         0
 10
0.0
 20
0.0
 30
0.0
  3
NOTE26
  1

  0
ENDBLK
  5
80
100
AcDbEntity
  8
0
100
AcDbBlockEnd
  0
BLOCK
  5
83
100
AcDbEntity
  8
0
 62
         0
100
AcDbBlockBegin
  2
NOTE27
 70
         0
 10
0.0
 20
0.0
 30
0.0
  3
NOTE27
  1

  0
ENDBLK
  5
84
100
AcDbEntity
  8
0
100
AcDbBlockEnd
  0
BLOCK
  5
87
100
AcDbEntity
  8
0
 62
         0
100
AcDbBlockBegin
  2
NOTE28
 70
         0
 10
0.0
 20
0.0
 30
0.0
  3
NOTE28
  1

  0
ENDBLK
  5
88
100
AcDbEntity
  8
0
100
AcDbBlockEnd
  0
BLOCK
  5
8B
100
AcDbEntity
  8
0
 62
         0
100
AcDbBlockBegin
  2
NOTE29
 70
         0
 10
0.0
 20
0.0
 30
0.0
  3
NOTE29
  1

  0
ENDBLK
  5
8C
100
AcDbEntity
  8
0
100
AcDbBlockEnd
  0
BLOCK
  5
8F
100
AcDbEntity
  8
0
 62
         0
100
AcDbBlockBegin
  2
NOTE30
 70
         0
 10
0.0
 20
0.0
 30
0.0
  3
NOTE30
  1

  0
ENDBLK
  5
90
100
AcDbEntity
  8
0
100
AcDbBlockEnd
  0
BLOCK
  5
93
100
AcDbEntity
  8
0
 62
         0
100
AcDbBlockBegin
  2
NOTE31
 70
         0
 10
0.0
 20
0.0
 30
0.0
  3
NOTE31
  1

  0
ENDBLK
  5
94
100
AcDbEntity
  8
0
100
AcDbBlockEnd
  0
BLOCK
  5
97
100
AcDbEntity
  8
0
 62
         0
100
AcDbBlockBegin
  2
NOTE32
 70
         0
 10
0.0
 20
0.0
 30
0.0
  3
NOTE32
  1

  0
ENDBLK
  5
98
100
AcDbEntity
  8
0
100
AcDbBlockEnd
  0
BLOCK
  5
9B
100
AcDbEntity
  8
0
 62
         0
100
AcDbBlockBegin
  2
NOTE33
 70
         0
 10
0.0
 20
0.0
 30
0.0
  3
NOTE33
  1

  0
ENDBLK
  5
9C
100
AcDbEntity
  8
0
100
AcDbBlockEnd
  0
BLOCK
  5
9F
100
AcDbEntity
  8
0
 62
         0
100
AcDbBlockBegin
  2
NOTE34
 70
         0
 10
0.0
 20
0.0
 30
0.0
  3
NOTE34
  1

  0
ENDBLK
  5
A0
100
AcDbEntity
  8
0
100
AcDbBlockEnd
  0
BLOCK
  5
A3
100
AcDbEntity
  8
0
 62
         0
100
AcDbBlockBegin
  2
NOTE35
 70
         0
 10
0.0
 20
0.0
 30
0.0
  3
NOTE35
  1

  0
ENDBLK
  5
A4
100
AcDbEntity
  8
0
100
AcDbBlockEnd
  0
BLOCK
  5
A8
100
AcDbEntity
  8
0
 62
         0
100
AcDbBlockBegin
  2
NOTE37
 70
         0
 10
0.0
 20
0.0
 30
0.0
  3
NOTE37
  1

  0
ENDBLK
  5
A9
100
AcDbEntity
  8
0
100
AcDbBlockEnd
  0
BLOCK
  5
AC
100
AcDbEntity
  8
0
 62
         0
100
AcDbBlockBegin
  2
NOTE38
 70
         0
 10
0.0
 20
0.0
 30
0.0
  3
NOTE38
  1

  0
ENDBLK
  5
AD
100
AcDbEntity
  8
0
100
AcDbBlockEnd
  0
BLOCK
  5
DF
100
AcDbEntity
  8
0
 62
         0
100
AcDbBlockBegin
  2
SW_CENTERMARK0
 70
         0
 10
0.0
 20
0.0
 30
0.0
  3
SW_CENTERMARK0
  1

  0
LINE
  5
E0
100
AcDbEntity
  8
0
  6
CONTINUOUS
 62
         7
100
AcDbLine
 10
115.4123438363
 20
220.2395626554
 30
0.0
 11
115.4123438363
 21
222.7395626554
 31
0.0
  0
LINE
  5
E1
100
AcDbEntity
  8
0
  6
CONTINUOUS
 62
         7
100
AcDbLine
 10
115.4123438363
 20
220.2395626554
 30
0.0
 11
112.9123438363
 21
220.2395626554
 31
0.0
  0
LINE
  5
E2
100
AcDbEntity
  8
0
  6
CONTINUOUS
 62
         7
100
AcDbLine
 10
115.4123438363
 20
220.2395626554
 30
0.0
 11
115.4123438363
 21
217.7395626554
 31
0.0
  0
LINE
  5
E3
100
AcDbEntity
  8
0
  6
CONTINUOUS
 62
         7
100
AcDbLine
 10
115.4123438363
 20
220.2395626554
 30
0.0
 11
117.9123438363
 21
220.2395626554
 31
0.0
  0
ENDBLK
  5
E4
100
AcDbEntity
  8
0
100
AcDbBlockEnd
  0
BLOCK
  5
E7
100
AcDbEntity
  8
0
 62
         0
100
AcDbBlockBegin
  2
SW_CENTERMARK1
 70
         0
 10
0.0
 20
0.0
 30
0.0
  3
SW_CENTERMARK1
  1

  0
LINE
  5
E8
100
AcDbEntity
  8
0
  6
CONTINUOUS
 62
         7
100
AcDbLine
 10
120.0216715377
 20
164.42958059
 30
0.0
 11
120.0216715377
 21
166.92958059
 31
0.0
  0
LINE
  5
E9
100
AcDbEntity
  8
0
  6
CONTINUOUS
 62
         7
100
AcDbLine
 10
120.0216715377
 20
164.42958059
 30
0.0
 11
117.5216715377
 21
164.42958059
 31
0.0
  0
LINE
  5
EA
100
AcDbEntity
  8
0
  6
CONTINUOUS
 62
         7
100
AcDbLine
 10
120.0216715377
 20
164.42958059
 30
0.0
 11
120.0216715377
 21
161.92958059
 31
0.0
  0
LINE
  5
EB
100
AcDbEntity
  8
0
  6
CONTINUOUS
 62
         7
100
AcDbLine
 10
120.0216715377
 20
164.42958059
 30
0.0
 11
122.5216715377
 21
164.42958059
 31
0.0
  0
ENDBLK
  5
EC
100
AcDbEntity
  8
0
100
AcDbBlockEnd
  0
BLOCK
  5
EF
100
AcDbEntity
  8
0
 62
         0
100
AcDbBlockBegin
  2
SW_CENTERMARK2
 70
         0
 10
0.0
 20
0.0
 30
0.0
  3
SW_CENTERMARK2
  1

  0
LINE
  5
F0
100
AcDbEntity
  8
0
  6
CONTINUOUS
 62
         7
100
AcDbLine
 10
77.2299476628
 20
191.1516850695
 30
0.0
 11
77.2299476628
 21
193.6516850695
 31
0.0
  0
LINE
  5
F1
100
AcDbEntity
  8
0
  6
CONTINUOUS
 62
         7
100
AcDbLine
 10
77.2299476628
 20
191.1516850695
 30
0.0
 11
74.7299476628
 21
191.1516850695
 31
0.0
  0
LINE
  5
F2
100
AcDbEntity
  8
0
  6
CONTINUOUS
 62
         7
100
AcDbLine
 10
77.2299476628
 20
191.1516850695
 30
0.0
 11
77.2299476628
 21
188.6516850695
 31
0.0
  0
LINE
  5
F3
100
AcDbEntity
  8
0
  6
CONTINUOUS
 62
         7
100
AcDbLine
 10
77.2299476628
 20
191.1516850695
 30
0.0
 11
79.7299476628
 21
191.1516850695
 31
0.0
  0
ENDBLK
  5
F4
100
AcDbEntity
  8
0
100
AcDbBlockEnd
  0
BLOCK
  5
F7
100
AcDbEntity
  8
0
 62
         0
100
AcDbBlockBegin
  2
SW_CENTERMARK3
 70
         0
 10
0.0
 20
0.0
 30
0.0
  3
SW_CENTERMARK3
  1

  0
LINE
  5
F8
100
AcDbEntity
  8
0
  6
CONTINUOUS
 62
         7
100
AcDbLine
 10
87.6296985733
 20
130.030124381
 30
0.0
 11
87.6296985733
 21
132.530124381
 31
0.0
  0
LINE
  5
F9
100
AcDbEntity
  8
0
  6
CONTINUOUS
 62
         7
100
AcDbLine
 10
87.6296985733
 20
130.030124381
 30
0.0
 11
85.1296985733
 21
130.030124381
 31
0.0
  0
LINE
  5
FA
100
AcDbEntity
  8
0
  6
CONTINUOUS
 62
         7
100
AcDbLine
 10
87.6296985733
 20
130.030124381
 30
0.0
 11
87.6296985733
 21
127.530124381
 31
0.0
  0
LINE
  5
FB
100
AcDbEntity
  8
0
  6
CONTINUOUS
 62
         7
100
AcDbLine
 10
87.6296985733
 20
130.030124381
 30
0.0
 11
90.1296985733
 21
130.030124381
 31
0.0
  0
ENDBLK
  5
FC
100
AcDbEntity
  8
0
100
AcDbBlockEnd
  0
BLOCK
  5
FF
100
AcDbEntity
  8
0
 62
         0
100
AcDbBlockBegin
  2
SW_CENTERMARK4
 70
         0
 10
0.0
 20
0.0
 30
0.0
  3
SW_CENTERMARK4
  1

  0
LINE
  5
100
100
AcDbEntity
  8
0
  6
CONTINUOUS
 62
         7
100
AcDbLine
 10
159.0977688727
 20
138.7659659368
 30
0.0
 11
159.0977688727
 21
141.2659659368
 31
0.0
  0
LINE
  5
101
100
AcDbEntity
  8
0
  6
CONTINUOUS
 62
         7
100
AcDbLine
 10
159.0977688727
 20
138.7659659368
 30
0.0
 11
156.5977688727
 21
138.7659659368
 31
0.0
  0
LINE
  5
102
100
AcDbEntity
  8
0
  6
CONTINUOUS
 62
         7
100
AcDbLine
 10
159.0977688727
 20
138.7659659368
 30
0.0
 11
159.0977688727
 21
136.2659659368
 31
0.0
  0
LINE
  5
103
100
AcDbEntity
  8
0
  6
CONTINUOUS
 62
         7
100
AcDbLine
 10
159.0977688727
 20
138.7659659368
 30
0.0
 11
161.5977688727
 21
138.7659659368
 31
0.0
  0
ENDBLK
  5
104
100
AcDbEntity
  8
0
100
AcDbBlockEnd
  0
BLOCK
  5
107
100
AcDbEntity
  8
0
 62
         0
100
AcDbBlockBegin
  2
SW_CENTERMARK5
 70
         0
 10
0.0
 20
0.0
 30
0.0
  3
SW_CENTERMARK5
  1

  0
LINE
  5
108
100
AcDbEntity
  8
0
  6
CONTINUOUS
 62
         7
100
AcDbLine
 10
151.8522013704
 20
198.6696137466
 30
0.0
 11
151.8522013704
 21
201.1696137466
 31
0.0
  0
LINE
  5
109
100
AcDbEntity
  8
0
  6
CONTINUOUS
 62
         7
100
AcDbLine
 10
151.8522013704
 20
198.6696137466
 30
0.0
 11
149.3522013704
 21
198.6696137466
 31
0.0
  0
LINE
  5
10A
100
AcDbEntity
  8
0
  6
CONTINUOUS
 62
         7
100
AcDbLine
 10
151.8522013704
 20
198.6696137466
 30
0.0
 11
151.8522013704
 21
196.1696137466
 31
0.0
  0
LINE
  5
10B
100
AcDbEntity
  8
0
  6
CONTINUOUS
 62
         7
100
AcDbLine
 10
151.8522013704
 20
198.6696137466
 30
0.0
 11
154.3522013704
 21
198.6696137466
 31
0.0
  0
ENDBLK
  5
10C
100
AcDbEntity
  8
0
100
AcDbBlockEnd
  0
BLOCK
  5
10F
100
AcDbEntity
  8
0
 62
         0
100
AcDbBlockBegin
  2
SW_CENTERMARK6
 70
         0
 10
0.0
 20
0.0
 30
0.0
  3
SW_CENTERMARK6
  1

  0
LINE
  5
110
100
AcDbEntity
  8
0
  6
CONTINUOUS
 62
         7
100
AcDbLine
 10
141.8412350773
 20
218.7080905819
 30
0.0
 11
141.8412350773
 21
221.2080905819
 31
0.0
  0
LINE
  5
111
100
AcDbEntity
  8
0
  6
CONTINUOUS
 62
         7
100
AcDbLine
 10
141.8412350773
 20
218.7080905819
 30
0.0
 11
139.3412350773
 21
218.7080905819
 31
0.0
  0
LINE
  5
112
100
AcDbEntity
  8
0
  6
CONTINUOUS
 62
         7
100
AcDbLine
 10
141.8412350773
 20
218.7080905819
 30
0.0
 11
141.8412350773
 21
216.2080905819
 31
0.0
  0
LINE
  5
113
100
AcDbEntity
  8
0
  6
CONTINUOUS
 62
         7
100
AcDbLine
 10
141.8412350773
 20
218.7080905819
 30
0.0
 11
144.3412350773
 21
218.7080905819
 31
0.0
  0
ENDBLK
  5
114
100
AcDbEntity
  8
0
100
AcDbBlockEnd
  0
BLOCK
  5
117
100
AcDbEntity
  8
0
 62
         0
100
AcDbBlockBegin
  2
SW_CENTERMARK7
 70
         0
 10
0.0
 20
0.0
 30
0.0
  3
SW_CENTERMARK7
  1

  0
LINE
  5
118
100
AcDbEntity
  8
0
  6
CONTINUOUS
 62
         7
100
AcDbLine
 10
126.3701996863
 20
181.2501359454
 30
0.0
 11
126.3701996863
 21
183.7501359454
 31
0.0
  0
LINE
  5
119
100
AcDbEntity
  8
0
  6
CONTINUOUS
 62
         7
100
AcDbLine
 10
126.3701996863
 20
181.2501359454
 30
0.0
 11
123.8701996863
 21
181.2501359454
 31
0.0
  0
LINE
  5
11A
100
AcDbEntity
  8
0
  6
CONTINUOUS
 62
         7
100
AcDbLine
 10
126.3701996863
 20
181.2501359454
 30
0.0
 11
126.3701996863
 21
178.7501359454
 31
0.0
  0
LINE
  5
11B
100
AcDbEntity
  8
0
  6
CONTINUOUS
 62
         7
100
AcDbLine
 10
126.3701996863
 20
181.2501359454
 30
0.0
 11
128.8701996863
 21
181.2501359454
 31
0.0
  0
ENDBLK
  5
11C
100
AcDbEntity
  8
0
100
AcDbBlockEnd
  0
BLOCK
  5
11F
100
AcDbEntity
  8
0
 62
         0
100
AcDbBlockBegin
  2
SW_CENTERMARK8
 70
         0
 10
0.0
 20
0.0
 30
0.0
  3
SW_CENTERMARK8
  1

  0
LINE
  5
120
100
AcDbEntity
  8
0
  6
CONTINUOUS
 62
         7
100
AcDbLine
 10
129.1084825613
 20
229.4706940508
 30
0.0
 11
129.1084825613
 21
231.9706940508
 31
0.0
  0
LINE
  5
121
100
AcDbEntity
  8
0
  6
CONTINUOUS
 62
         7
100
AcDbLine
 10
129.1084825613
 20
229.4706940508
 30
0.0
 11
126.6084825613
 21
229.4706940508
 31
0.0
  0
LINE
  5
122
100
AcDbEntity
  8
0
  6
CONTINUOUS
 62
         7
100
AcDbLine
 10
129.1084825613
 20
229.4706940508
 30
0.0
 11
129.1084825613
 21
226.9706940508
 31
0.0
  0
LINE
  5
123
100
AcDbEntity
  8
0
  6
CONTINUOUS
 62
         7
100
AcDbLine
 10
129.1084825613
 20
229.4706940508
 30
0.0
 11
131.6084825613
 21
229.4706940508
 31
0.0
  0
ENDBLK
  5
124
100
AcDbEntity
  8
0
100
AcDbBlockEnd
  0
BLOCK
  5
127
100
AcDbEntity
  8
0
 62
         0
100
AcDbBlockBegin
  2
SW_CENTERMARK9
 70
         0
 10
0.0
 20
0.0
 30
0.0
  3
SW_CENTERMARK9
  1

  0
LINE
  5
128
100
AcDbEntity
  8
0
  6
CONTINUOUS
 62
         7
100
AcDbLine
 10
140.2330064635
 20
223.7702582824
 30
0.0
 11
140.2330064635
 21
226.2702582824
 31
0.0
  0
LINE
  5
129
100
AcDbEntity
  8
0
  6
CONTINUOUS
 62
         7
100
AcDbLine
 10
140.2330064635
 20
223.7702582824
 30
0.0
 11
137.7330064635
 21
223.7702582824
 31
0.0
  0
LINE
  5
12A
100
AcDbEntity
  8
0
  6
CONTINUOUS
 62
         7
100
AcDbLine
 10
140.2330064635
 20
223.7702582824
 30
0.0
 11
140.2330064635
 21
221.2702582824
 31
0.0
  0
LINE
  5
12B
100
AcDbEntity
  8
0
  6
CONTINUOUS
 62
         7
100
AcDbLine
 10
140.2330064635
 20
223.7702582824
 30
0.0
 11
142.7330064635
 21
223.7702582824
 31
0.0
  0
ENDBLK
  5
12C
100
AcDbEntity
  8
0
100
AcDbBlockEnd
  0
BLOCK
  5
12F
100
AcDbEntity
  8
0
 62
         0
100
AcDbBlockBegin
  2
SW_CENTERMARK10
 70
         0
 10
0.0
 20
0.0
 30
0.0
  3
SW_CENTERMARK10
  1

  0
LINE
  5
130
100
AcDbEntity
  8
0
  6
CONTINUOUS
 62
         7
100
AcDbLine
 10
117.5384179237
 20
224.7395626554
 30
0.0
 11
117.5384179237
 21
227.2395626554
 31
0.0
  0
LINE
  5
131
100
AcDbEntity
  8
0
  6
CONTINUOUS
 62
         7
100
AcDbLine
 10
117.5384179237
 20
224.7395626554
 30
0.0
 11
115.0384179237
 21
224.7395626554
 31
0.0
  0
LINE
  5
132
100
AcDbEntity
  8
0
  6
CONTINUOUS
 62
         7
100
AcDbLine
 10
117.5384179237
 20
224.7395626554
 30
0.0
 11
117.5384179237
 21
222.2395626554
 31
0.0
  0
LINE
  5
133
100
AcDbEntity
  8
0
  6
CONTINUOUS
 62
         7
100
AcDbLine
 10
117.5384179237
 20
224.7395626554
 30
0.0
 11
120.0384179237
 21
224.7395626554
 31
0.0
  0
ENDBLK
  5
134
100
AcDbEntity
  8
0
100
AcDbBlockEnd
  0
BLOCK
  5
137
100
AcDbEntity
  8
0
 62
         0
100
AcDbBlockBegin
  2
SW_CENTERMARK11
 70
         0
 10
0.0
 20
0.0
 30
0.0
  3
SW_CENTERMARK11
  1

  0
LINE
  5
138
100
AcDbEntity
  8
0
  6
CONTINUOUS
 62
         7
100
AcDbLine
 10
137.5429861168
 20
214.4496119316
 30
0.0
 11
137.5429861168
 21
216.9496119316
 31
0.0
  0
LINE
  5
139
100
AcDbEntity
  8
0
  6
CONTINUOUS
 62
         7
100
AcDbLine
 10
137.5429861168
 20
214.4496119316
 30
0.0
 11
135.0429861168
 21
214.4496119316
 31
0.0
  0
LINE
  5
13A
100
AcDbEntity
  8
0
  6
CONTINUOUS
 62
         7
100
AcDbLine
 10
137.5429861168
 20
214.4496119316
 30
0.0
 11
137.5429861168
 21
211.9496119316
 31
0.0
  0
LINE
  5
13B
100
AcDbEntity
  8
0
  6
CONTINUOUS
 62
         7
100
AcDbLine
 10
137.5429861168
 20
214.4496119316
 30
0.0
 11
140.0429861168
 21
214.4496119316
 31
0.0
  0
ENDBLK
  5
13C
100
AcDbEntity
  8
0
100
AcDbBlockEnd
  0
BLOCK
  5
13F
100
AcDbEntity
  8
0
 62
         0
100
AcDbBlockBegin
  2
SW_CENTERMARK12
 70
         0
 10
0.0
 20
0.0
 30
0.0
  3
SW_CENTERMARK12
  1

  0
LINE
  5
140
100
AcDbEntity
  8
0
  6
CONTINUOUS
 62
         7
100
AcDbLine
 10
112.4171296061
 20
216.8811863043
 30
0.0
 11
112.4171296061
 21
219.3811863043
 31
0.0
  0
LINE
  5
141
100
AcDbEntity
  8
0
  6
CONTINUOUS
 62
         7
100
AcDbLine
 10
112.4171296061
 20
216.8811863043
 30
0.0
 11
109.9171296061
 21
216.8811863043
 31
0.0
  0
LINE
  5
142
100
AcDbEntity
  8
0
  6
CONTINUOUS
 62
         7
100
AcDbLine
 10
112.4171296061
 20
216.8811863043
 30
0.0
 11
112.4171296061
 21
214.3811863043
 31
0.0
  0
LINE
  5
143
100
AcDbEntity
  8
0
  6
CONTINUOUS
 62
         7
100
AcDbLine
 10
112.4171296061
 20
216.8811863043
 30
0.0
 11
114.9171296061
 21
216.8811863043
 31
0.0
  0
ENDBLK
  5
144
100
AcDbEntity
  8
0
100
AcDbBlockEnd
  0
ENDSEC
  0
SECTION
  2
ENTITIES
  0
LINE
  5
25
100
AcDbEntity
  8
0
  6
CONTINUOUS
 62
         7
100
AcDbLine
 10
227.8
 20
9.25
 30
0.0
 11
415.0
 21
9.25
 31
0.0
  0
LINE
  5
26
100
AcDbEntity
  8
0
  6
CONTINUOUS
 62
         7
100
AcDbLine
 10
415.0
 20
43.25
 30
0.0
 11
227.8
 21
43.25
 31
0.0
  0
LINE
  5
27
100
AcDbEntity
  8
0
  6
CONTINUOUS
 62
         7
100
AcDbLine
 10
227.8
 20
60.25
 30
0.0
 11
415.0
 21
60.25
 31
0.0
  0
LINE
  5
28
100
AcDbEntity
  8
0
  6
CONTINUOUS
 62
         7
100
AcDbLine
 10
410.0
 20
287.0
 30
0.0
 11
410.0
 21
60.25
 31
0.0
  0
LINE
  5
29
100
AcDbEntity
  8
0
  6
CONTINUOUS
 62
         7
100
AcDbLine
 10
254.7909524338
 20
43.25
 30
0.0
 11
254.7909524338
 21
5.0
 31
0.0
  0
LINE
  5
2A
100
AcDbEntity
  8
0
  6
CONTINUOUS
 62
         7
100
AcDbLine
 10
326.6
 20
26.25
 30
0.0
 11
227.8
 21
26.25
 31
0.0
  0
LINE
  5
2B
100
AcDbEntity
  8
0
  6
CONTINUOUS
 62
         7
100
AcDbLine
 10
326.6
 20
30.5
 30
0.0
 11
227.8
 21
30.5
 31
0.0
  0
LINE
  5
2C
100
AcDbEntity
  8
0
  6
CONTINUOUS
 62
         7
100
AcDbLine
 10
326.6
 20
34.75
 30
0.0
 11
227.8
 21
34.75
 31
0.0
  0
LINE
  5
2D
100
AcDbEntity
  8
0
  6
CONTINUOUS
 62
         7
100
AcDbLine
 10
326.6
 20
39.0
 30
0.0
 11
227.8
 21
39.0
 31
0.0
  0
LINE
  5
2E
100
AcDbEntity
  8
0
  6
CONTINUOUS
 62
         7
100
AcDbLine
 10
282.4
 20
5.0
 30
0.0
 11
282.4
 21
43.25
 31
0.0
  0
LINE
  5
2F
100
AcDbEntity
  8
0
  6
CONTINUOUS
 62
         7
100
AcDbLine
 10
227.8
 20
60.25
 30
0.0
 11
227.8
 21
5.0
 31
0.0
  0
LINE
  5
30
100
AcDbEntity
  8
0
  6
CONTINUOUS
 62
         7
100
AcDbLine
 10
235.6
 20
43.25
 30
0.0
 11
235.6
 21
5.0
 31
0.0
  0
LINE
  5
31
100
AcDbEntity
  8
0
  6
CONTINUOUS
 62
         7
100
AcDbLine
 10
261.6
 20
43.25
 30
0.0
 11
261.6
 21
60.25
 31
0.0
  0
LINE
  5
32
100
AcDbEntity
  8
0
  6
CONTINUOUS
 62
         7
100
AcDbLine
 10
272.1989261635
 20
43.25
 30
0.0
 11
272.1989261635
 21
5.0
 31
0.0
  0
LINE
  5
33
100
AcDbEntity
  8
0
  6
CONTINUOUS
 62
         7
100
AcDbLine
 10
292.8
 20
26.25
 30
0.0
 11
292.8
 21
43.25
 31
0.0
  0
LINE
  5
34
100
AcDbEntity
  8
0
  6
CONTINUOUS
 62
         7
100
AcDbLine
 10
282.4
 20
13.5
 30
0.0
 11
227.8
 21
13.5
 31
0.0
  0
LINE
  5
35
100
AcDbEntity
  8
0
  6
CONTINUOUS
 62
         7
100
AcDbLine
 10
308.4
 20
60.25
 30
0.0
 11
308.4
 21
22.0
 31
0.0
  0
LINE
  5
36
100
AcDbEntity
  8
0
  6
CONTINUOUS
 62
         7
100
AcDbLine
 10
282.4
 20
17.749928
 30
0.0
 11
227.8
 21
17.749928
 31
0.0
  0
LINE
  5
37
100
AcDbEntity
  8
0
  6
CONTINUOUS
 62
         7
100
AcDbLine
 10
282.4
 20
22.0
 30
0.0
 11
227.8
 21
22.0
 31
0.0
  0
LINE
  5
38
100
AcDbEntity
  8
0
  6
CONTINUOUS
 62
         7
100
AcDbLine
 10
282.4
 20
22.0
 30
0.0
 11
415.0
 21
22.0
 31
0.0
  0
LINE
  5
39
100
AcDbEntity
  8
0
  6
CONTINUOUS
 62
         7
100
AcDbLine
 10
326.6
 20
60.25
 30
0.0
 11
326.6
 21
5.0
 31
0.0
  0
LINE
  5
3A
100
AcDbEntity
  8
0
  6
CONTINUOUS
 62
         7
100
AcDbLine
 10
370.8
 20
5.0
 30
0.0
 11
370.8
 21
9.25
 31
0.0
  0
LINE
  5
3B
100
AcDbEntity
  8
0
  6
CONTINUOUS
 62
         7
100
AcDbLine
 10
378.6
 20
53.875
 30
0.0
 11
378.6
 21
60.25
 31
0.0
  0
LINE
  5
3C
100
AcDbEntity
  8
0
  6
CONTINUOUS
 62
         7
100
AcDbLine
 10
402.0
 20
9.25
 30
0.0
 11
402.0
 21
22.0
 31
0.0
  0
LINE
  5
3D
100
AcDbEntity
  8
0
  6
CONTINUOUS
 62
         7
100
AcDbLine
 10
415.0
 20
53.875
 30
0.0
 11
326.6
 21
53.875
 31
0.0
  0
LINE
  5
3E
100
AcDbEntity
  8
0
  6
CONTINUOUS
 62
         7
100
AcDbLine
 10
415.0
 20
13.5
 30
0.0
 11
402.0
 21
13.5
 31
0.0
  0
LINE
  5
3F
100
AcDbEntity
  8
0
  6
CONTINUOUS
 62
         7
100
AcDbLine
 10
415.0
 20
292.0
 30
0.0
 11
5.0
 21
292.0
 31
0.0
  0
LINE
  5
40
100
AcDbEntity
  8
0
  6
CONTINUOUS
 62
         7
100
AcDbLine
 10
410.0
 20
287.0
 30
0.0
 11
10.0
 21
287.0
 31
0.0
  0
LINE
  5
41
100
AcDbEntity
  8
0
  6
CONTINUOUS
 62
         7
100
AcDbLine
 10
5.0
 20
292.0
 30
0.0
 11
5.0
 21
5.0
 31
0.0
  0
LINE
  5
42
100
AcDbEntity
  8
0
  6
CONTINUOUS
 62
         7
100
AcDbLine
 10
10.0
 20
287.0
 30
0.0
 11
10.0
 21
10.0
 31
0.0
  0
LINE
  5
43
100
AcDbEntity
  8
0
  6
CONTINUOUS
 62
         7
100
AcDbLine
 10
10.0
 20
48.5
 30
0.0
 11
5.0
 21
48.5
 31
0.0
  0
LINE
  5
44
100
AcDbEntity
  8
0
  6
CONTINUOUS
 62
         7
100
AcDbLine
 10
5.0
 20
98.5
 30
0.0
 11
10.0
 21
98.5
 31
0.0
  0
LINE
  5
45
100
AcDbEntity
  8
0
  6
CONTINUOUS
 62
         7
100
AcDbLine
 10
5.0
 20
198.5
 30
0.0
 11
10.0
 21
198.5
 31
0.0
  0
LINE
  5
46
100
AcDbEntity
  8
0
  6
CONTINUOUS
 62
         7
100
AcDbLine
 10
5.0
 20
148.5
 30
0.0
 11
15.0
 21
148.5
 31
0.0
  0
LINE
  5
47
100
AcDbEntity
  8
0
  6
CONTINUOUS
 62
         7
100
AcDbLine
 10
5.0
 20
5.0
 30
0.0
 11
415.0
 21
5.0
 31
0.0
  0
LINE
  5
48
100
AcDbEntity
  8
0
  6
CONTINUOUS
 62
         7
100
AcDbLine
 10
10.0
 20
10.0
 30
0.0
 11
227.8
 21
10.0
 31
0.0
  0
LINE
  5
49
100
AcDbEntity
  8
0
  6
CONTINUOUS
 62
         7
100
AcDbLine
 10
60.0
 20
5.0
 30
0.0
 11
60.0
 21
10.0
 31
0.0
  0
LINE
  5
4A
100
AcDbEntity
  8
0
  6
CONTINUOUS
 62
         7
100
AcDbLine
 10
110.0
 20
10.0
 30
0.0
 11
110.0
 21
5.0
 31
0.0
  0
LINE
  5
4B
100
AcDbEntity
  8
0
  6
CONTINUOUS
 62
         7
100
AcDbLine
 10
160.0
 20
5.0
 30
0.0
 11
160.0
 21
10.0
 31
0.0
  0
LINE
  5
4C
100
AcDbEntity
  8
0
  6
CONTINUOUS
 62
         7
100
AcDbLine
 10
10.0
 20
248.5
 30
0.0
 11
5.0
 21
248.5
 31
0.0
  0
LINE
  5
4D
100
AcDbEntity
  8
0
  6
CONTINUOUS
 62
         7
100
AcDbLine
 10
60.0
 20
287.0
 30
0.0
 11
60.0
 21
292.0
 31
0.0
  0
LINE
  5
4E
100
AcDbEntity
  8
0
  6
CONTINUOUS
 62
         7
100
AcDbLine
 10
110.0
 20
292.0
 30
0.0
 11
110.0
 21
287.0
 31
0.0
  0
LINE
  5
4F
100
AcDbEntity
  8
0
  6
CONTINUOUS
 62
         7
100
AcDbLine
 10
160.0
 20
287.0
 30
0.0
 11
160.0
 21
292.0
 31
0.0
  0
LINE
  5
50
100
AcDbEntity
  8
0
  6
CONTINUOUS
 62
         7
100
AcDbLine
 10
260.0
 20
287.0
 30
0.0
 11
260.0
 21
292.0
 31
0.0
  0
LINE
  5
51
100
AcDbEntity
  8
0
  6
CONTINUOUS
 62
         7
100
AcDbLine
 10
415.0
 20
5.0
 30
0.0
 11
415.0
 21
292.0
 31
0.0
  0
LINE
  5
52
100
AcDbEntity
  8
0
  6
CONTINUOUS
 62
         7
100
AcDbLine
 10
210.0
 20
5.0
 30
0.0
 11
210.0
 21
15.0
 31
0.0
  0
LINE
  5
53
100
AcDbEntity
  8
0
  6
CONTINUOUS
 62
         7
100
AcDbLine
 10
410.0
 20
198.5
 30
0.0
 11
415.0
 21
198.5
 31
0.0
  0
LINE
  5
54
100
AcDbEntity
  8
0
  6
CONTINUOUS
 62
         7
100
AcDbLine
 10
410.0
 20
98.5
 30
0.0
 11
415.0
 21
98.5
 31
0.0
  0
LINE
  5
55
100
AcDbEntity
  8
0
  6
CONTINUOUS
 62
         7
100
AcDbLine
 10
415.0
 20
148.5
 30
0.0
 11
405.0
 21
148.5
 31
0.0
  0
LINE
  5
56
100
AcDbEntity
  8
0
  6
CONTINUOUS
 62
         7
100
AcDbLine
 10
310.0
 20
292.0
 30
0.0
 11
310.0
 21
287.0
 31
0.0
  0
LINE
  5
57
100
AcDbEntity
  8
0
  6
CONTINUOUS
 62
         7
100
AcDbLine
 10
360.0
 20
287.0
 30
0.0
 11
360.0
 21
292.0
 31
0.0
  0
LINE
  5
58
100
AcDbEntity
  8
0
  6
CONTINUOUS
 62
         7
100
AcDbLine
 10
210.0
 20
292.0
 30
0.0
 11
210.0
 21
282.0
 31
0.0
  0
LINE
  5
59
100
AcDbEntity
  8
0
  6
CONTINUOUS
 62
         7
100
AcDbLine
 10
415.0
 20
248.5
 30
0.0
 11
410.0
 21
248.5
 31
0.0
  0
MTEXT
  5
5B
100
AcDbEntity
  8
0
 62
         7
100
AcDbMText
 10
6.6666666667
 20
124.750004
 30
0.0
 40
1.8520833333
 41
0.0
 71
         1
 72
         1
  1
D
  7
SLDTEXTSTYLE0
  0
MTEXT
  5
5C
100
AcDbEntity
  8
0
 62
         7
100
AcDbMText
 10
6.6666666667
 20
74.750004
 30
0.0
 40
1.8520833333
 41
0.0
 71
         1
 72
         1
  1
E
  7
SLDTEXTSTYLE0
  0
MTEXT
  5
5D
100
AcDbEntity
  8
0
 62
         7
100
AcDbMText
 10
6.6666666667
 20
24.750004
 30
0.0
 40
1.8520833333
 41
0.0
 71
         1
 72
         1
  1
F
  7
SLDTEXTSTYLE0
  0
MTEXT
  5
5E
100
AcDbEntity
  8
0
 62
         7
100
AcDbMText
 10
6.6666666667
 20
174.750004
 30
0.0
 40
1.8520833333
 41
0.0
 71
         1
 72
         1
  1
C
  7
SLDTEXTSTYLE0
  0
MTEXT
  5
5F
100
AcDbEntity
  8
0
 62
         7
100
AcDbMText
 10
34.5833333333
 20
8.750008
 30
0.0
 40
1.8520833333
 41
0.0
 71
         1
 72
         1
  1
1
  7
SLDTEXTSTYLE0
  0
MTEXT
  5
60
100
AcDbEntity
  8
0
 62
         7
100
AcDbMText
 10
84.1666666667
 20
8.750008
 30
0.0
 40
1.8520833333
 41
0.0
 71
         1
 72
         1
  1
2
  7
SLDTEXTSTYLE0
  0
MTEXT
  5
61
100
AcDbEntity
  8
0
 62
         7
100
AcDbMText
 10
134.1666666667
 20
8.750008
 30
0.0
 40
1.8520833333
 41
0.0
 71
         1
 72
         1
  1
3
  7
SLDTEXTSTYLE0
  0
MTEXT
  5
62
100
AcDbEntity
  8
0
 62
         7
100
AcDbMText
 10
184.1666666667
 20
8.750008
 30
0.0
 40
1.8520833333
 41
0.0
 71
         1
 72
         1
  1
4
  7
SLDTEXTSTYLE0
  0
MTEXT
  5
63
100
AcDbEntity
  8
0
 62
         7
100
AcDbMText
 10
6.6666666667
 20
224.750004
 30
0.0
 40
1.8520833333
 41
0.0
 71
         1
 72
         1
  1
B
  7
SLDTEXTSTYLE0
  0
MTEXT
  5
64
100
AcDbEntity
  8
0
 62
         7
100
AcDbMText
 10
6.6666666667
 20
274.750004
 30
0.0
 40
1.8520833333
 41
0.0
 71
         1
 72
         1
  1
A
  7
SLDTEXTSTYLE0
  0
MTEXT
  5
65
100
AcDbEntity
  8
0
 62
         7
100
AcDbMText
 10
134.1666666667
 20
290.750008
 30
0.0
 40
1.8520833333
 41
0.0
 71
         1
 72
         1
  1
3
  7
SLDTEXTSTYLE0
  0
MTEXT
  5
66
100
AcDbEntity
  8
0
 62
         7
100
AcDbMText
 10
84.1666666667
 20
290.750008
 30
0.0
 40
1.8520833333
 41
0.0
 71
         1
 72
         1
  1
2
  7
SLDTEXTSTYLE0
  0
MTEXT
  5
67
100
AcDbEntity
  8
0
 62
         7
100
AcDbMText
 10
34.5833333333
 20
290.750008
 30
0.0
 40
1.8520833333
 41
0.0
 71
         1
 72
         1
  1
1
  7
SLDTEXTSTYLE0
  0
MTEXT
  5
68
100
AcDbEntity
  8
0
 62
         7
100
AcDbMText
 10
234.1666666667
 20
290.750008
 30
0.0
 40
1.8520833333
 41
0.0
 71
         1
 72
         1
  1
5
  7
SLDTEXTSTYLE0
  0
MTEXT
  5
69
100
AcDbEntity
  8
0
 62
         7
100
AcDbMText
 10
411.6666666667
 20
174.750004
 30
0.0
 40
1.8520833333
 41
0.0
 71
         1
 72
         1
  1
C
  7
SLDTEXTSTYLE0
  0
MTEXT
  5
6A
100
AcDbEntity
  8
0
 62
         7
100
AcDbMText
 10
411.6666666667
 20
124.750004
 30
0.0
 40
1.8520833333
 41
0.0
 71
         1
 72
         1
  1
D
  7
SLDTEXTSTYLE0
  0
MTEXT
  5
6B
100
AcDbEntity
  8
0
 62
         7
100
AcDbMText
 10
184.1666666667
 20
290.750008
 30
0.0
 40
1.8520833333
 41
0.0
 71
         1
 72
         1
  1
4
  7
SLDTEXTSTYLE0
  0
MTEXT
  5
6C
100
AcDbEntity
  8
0
 62
         7
100
AcDbMText
 10
284.1666666667
 20
290.750008
 30
0.0
 40
1.8520833333
 41
0.0
 71
         1
 72
         1
  1
6
  7
SLDTEXTSTYLE0
  0
MTEXT
  5
6D
100
AcDbEntity
  8
0
 62
         7
100
AcDbMText
 10
334.1666666667
 20
290.750008
 30
0.0
 40
1.8520833333
 41
0.0
 71
         1
 72
         1
  1
7
  7
SLDTEXTSTYLE0
  0
MTEXT
  5
6E
100
AcDbEntity
  8
0
 62
         7
100
AcDbMText
 10
384.1666666667
 20
290.750008
 30
0.0
 40
1.8520833333
 41
0.0
 71
         1
 72
         1
  1
8
  7
SLDTEXTSTYLE0
  0
MTEXT
  5
6F
100
AcDbEntity
  8
0
 62
         7
100
AcDbMText
 10
411.6666666667
 20
274.750004
 30
0.0
 40
1.8520833333
 41
0.0
 71
         1
 72
         1
  1
A
  7
SLDTEXTSTYLE0
  0
MTEXT
  5
70
100
AcDbEntity
  8
0
 62
         7
100
AcDbMText
 10
411.6666666667
 20
224.750004
 30
0.0
 40
1.8520833333
 41
0.0
 71
         1
 72
         1
  1
B
  7
SLDTEXTSTYLE0
  0
INSERT
  5
74
100
AcDbEntity
  8
0
100
AcDbBlockReference
  2
NOTE22
 10
0.0
 20
0.0
 30
0.0
  0
INSERT
  5
78
100
AcDbEntity
  8
0
100
AcDbBlockReference
  2
NOTE23
 10
0.0
 20
0.0
 30
0.0
  0
MTEXT
  5
79
100
AcDbEntity
  8
0
 62
         7
100
AcDbMText
 10
367.6926907631
 20
19.5600472859
 30
0.0
 40
6.35
 41
0.0
 71
         2
 72
         1
  1
Kopfdichtung
  7
SLDTEXTSTYLE0
  0
INSERT
  5
7D
100
AcDbEntity
  8
0
100
AcDbBlockReference
  2
NOTE25
 10
0.0
 20
0.0
 30
0.0
  0
INSERT
  5
81
100
AcDbEntity
  8
0
100
AcDbBlockReference
  2
NOTE26
 10
0.0
 20
0.0
 30
0.0
  0
INSERT
  5
85
100
AcDbEntity
  8
0
100
AcDbBlockReference
  2
NOTE27
 10
0.0
 20
0.0
 30
0.0
  0
INSERT
  5
89
100
AcDbEntity
  8
0
100
AcDbBlockReference
  2
NOTE28
 10
0.0
 20
0.0
 30
0.0
  0
INSERT
  5
8D
100
AcDbEntity
  8
0
100
AcDbBlockReference
  2
NOTE29
 10
0.0
 20
0.0
 30
0.0
  0
INSERT
  5
91
100
AcDbEntity
  8
0
100
AcDbBlockReference
  2
NOTE30
 10
0.0
 20
0.0
 30
0.0
  0
INSERT
  5
95
100
AcDbEntity
  8
0
100
AcDbBlockReference
  2
NOTE31
 10
0.0
 20
0.0
 30
0.0
  0
INSERT
  5
99
100
AcDbEntity
  8
0
100
AcDbBlockReference
  2
NOTE32
 10
0.0
 20
0.0
 30
0.0
  0
INSERT
  5
9D
100
AcDbEntity
  8
0
100
AcDbBlockReference
  2
NOTE33
 10
0.0
 20
0.0
 30
0.0
  0
INSERT
  5
A1
100
AcDbEntity
  8
0
100
AcDbBlockReference
  2
NOTE34
 10
0.0
 20
0.0
 30
0.0
  0
INSERT
  5
A5
100
AcDbEntity
  8
0
100
AcDbBlockReference
  2
NOTE35
 10
0.0
 20
0.0
 30
0.0
  0
MTEXT
  5
A6
100
AcDbEntity
  8
0
 62
         7
100
AcDbMText
 10
283.4178111281
 20
8.5161150386
 30
0.0
 40
1.4986
 41
0.0
 71
         1
 72
         1
  1
WEIGHT: 
  7
SLDTEXTSTYLE0
  0
INSERT
  5
AA
100
AcDbEntity
  8
0
100
AcDbBlockReference
  2
NOTE37
 10
0.0
 20
0.0
 30
0.0
  0
INSERT
  5
AE
100
AcDbEntity
  8
0
100
AcDbBlockReference
  2
NOTE38
 10
0.0
 20
0.0
 30
0.0
  0
MTEXT
  5
AF
100
AcDbEntity
  8
0
 62
         7
100
AcDbMText
 10
405.9209848464
 20
19.4292757855
 30
0.0
 40
2.9104166667
 41
0.0
 71
         1
 72
         1
  1
A3
  7
SLDTEXTSTYLE0
  0
MTEXT
  5
B0
100
AcDbEntity
  8
0
 62
         7
100
AcDbMText
 10
372.2782944278
 20
8.4664857836
 30
0.0
 40
1.5
 41
0.0
 71
         1
 72
         1
  1
SHEET 1 OF 1
  7
SLDTEXTSTYLE0
  0
MTEXT
  5
B1
100
AcDbEntity
  8
0
 62
         7
100
AcDbMText
 10
327.8739661175
 20
8.4664857836
 30
0.0
 40
1.5
 41
0.0
 71
         1
 72
         1
  1
SCALE:1:1
  7
SLDTEXTSTYLE0
  0
MTEXT
  5
B2
100
AcDbEntity
  8
0
 62
         7
100
AcDbMText
 10
327.8739661175
 20
20.4350363361
 30
0.0
 40
1.5
 41
0.0
 71
         1
 72
         1
  1
DWG NO.
  7
SLDTEXTSTYLE0
  0
MTEXT
  5
B3
100
AcDbEntity
  8
0
 62
         7
100
AcDbMText
 10
327.7561869366
 20
41.8447327951
 30
0.0
 40
1.5
 41
0.0
 71
         1
 72
         1
  1
TITLE:
  7
SLDTEXTSTYLE0
  0
MTEXT
  5
B4
100
AcDbEntity
  8
0
 62
         7
100
AcDbMText
 10
381.1275816993
 20
57.9013071895
 30
0.0
 40
1.5
 41
0.0
 71
         1
 72
         1
  1
REVISION
  7
SLDTEXTSTYLE0
  0
MTEXT
  5
B5
100
AcDbEntity
  8
0
 62
         7
100
AcDbMText
 10
340.4146405229
 20
58.0993920841
 30
0.0
 40
1.5
 41
0.0
 71
         1
 72
         1
  1
DO NOT SCALE DRAWING
  7
SLDTEXTSTYLE0
  0
MTEXT
  5
B6
100
AcDbEntity
  8
0
 62
         7
100
AcDbMText
 10
283.4458623088
 20
21.5524547983
 30
0.0
 40
1.5
 41
0.0
 71
         1
 72
         1
  1
MATERIAL:
  7
SLDTEXTSTYLE0
  0
MTEXT
  5
B7
100
AcDbEntity
  8
0
 62
         7
100
AcDbMText
 10
275.0147019657
 20
42.1425777303
 30
0.0
 40
1.5
 41
0.0
 71
         1
 72
         1
  1
DATE
  7
SLDTEXTSTYLE0
  0
MTEXT
  5
B8
100
AcDbEntity
  8
0
 62
         7
100
AcDbMText
 10
257.8335875632
 20
42.1281548886
 30
0.0
 40
1.5
 41
0.0
 71
         1
 72
         1
  1
SIGNATURE
  7
SLDTEXTSTYLE0
  0
MTEXT
  5
B9
100
AcDbEntity
  8
0
 62
         7
100
AcDbMText
 10
242.1222392177
 20
42.0678811426
 30
0.0
 40
1.5
 41
0.0
 71
         1
 72
         1
  1
NAME
  7
SLDTEXTSTYLE0
  0
MTEXT
  5
BA
100
AcDbEntity
  8
0
 62
         7
100
AcDbMText
 10
309.1092156863
 20
59.5694897618
 30
0.0
 40
1.5
 41
0.0
 71
         1
 72
         1
  1
DEBUR AND \PBREAK SHARP \PEDGES
  7
SLDTEXTSTYLE0
  0
MTEXT
  5
BB
100
AcDbEntity
  8
0
 62
         7
100
AcDbMText
 10
262.1712921668
 20
59.4856705042
 30
0.0
 40
1.5
 41
0.0
 71
         1
 72
         1
  1
FINISH:
  7
SLDTEXTSTYLE0
  0
MTEXT
  5
BC
100
AcDbEntity
  8
0
 62
         7
100
AcDbMText
 10
228.3936687456
 20
59.487369993
 30
0.0
 40
1.5
 41
0.0
 71
         1
 72
         1
  1
UNLESS OTHERWISE SPECIFIED:\PDIMENSIONS ARE IN MILLIMETERS\PSURFACE FINISH:\PTOLERANCES:\P   LINEAR:\P   ANGULAR:
  7
SLDTEXTSTYLE0
  0
MTEXT
  5
BD
100
AcDbEntity
  8
0
 62
         7
100
AcDbMText
 10
228.4690428622
 20
20.9160477164
 30
0.0
 40
1.5
 41
0.0
 71
         1
 72
         1
  1
Q.A
  7
SLDTEXTSTYLE0
  0
MTEXT
  5
BE
100
AcDbEntity
  8
0
 62
         7
100
AcDbMText
 10
228.2551864991
 20
25.3001031597
 30
0.0
 40
1.5
 41
0.0
 71
         1
 72
         1
  1
MFG
  7
SLDTEXTSTYLE0
  0
MTEXT
  5
BF
100
AcDbEntity
  8
0
 62
         7
100
AcDbMText
 10
228.2017224083
 20
29.6306945122
 30
0.0
 40
1.5
 41
0.0
 71
         1
 72
         1
  1
APPV'D
  7
SLDTEXTSTYLE0
  0
MTEXT
  5
C0
100
AcDbEntity
  8
0
 62
         7
100
AcDbMText
 10
228.2104688676
 20
33.7208056691
 30
0.0
 40
1.5
 41
0.0
 71
         1
 72
         1
  1
CHK'D
  7
SLDTEXTSTYLE0
  0
MTEXT
  5
C1
100
AcDbEntity
  8
0
 62
         7
100
AcDbMText
 10
228.0121492441
 20
37.996113395
 30
0.0
 40
1.5
 41
0.0
 71
         1
 72
         1
  1
DRAWN
  7
SLDTEXTSTYLE0
  0
CIRCLE
  5
C2
100
AcDbEntity
  8
0
  6
CONTINUOUS
 62
         7
100
AcDbCircle
 10
120.0216715377
 20
164.42958059
 30
0.0
 40
31.25
  0
CIRCLE
  5
C3
100
AcDbEntity
  8
0
  6
CONTINUOUS
 62
         7
100
AcDbCircle
 10
151.8522013704
 20
198.6696137466
 30
0.0
 40
4.75
  0
CIRCLE
  5
C4
100
AcDbEntity
  8
0
  6
CONTINUOUS
 62
         7
100
AcDbCircle
 10
87.6296985733
 20
130.030124381
 30
0.0
 40
5.5
  0
CIRCLE
  5
C5
100
AcDbEntity
  8
0
  6
CONTINUOUS
 62
         7
100
AcDbCircle
 10
129.1084825613
 20
229.4706940508
 30
0.0
 40
3.5
  0
ARC
  5
C6
100
AcDbEntity
  8
0
  6
CONTINUOUS
 62
         7
100
AcDbCircle
 10
126.3701996863
 20
181.2501359454
 30
0.0
 40
58.0
100
AcDbArc
 50
67.55819853
 51
105.6978512375
  0
ARC
  5
C7
100
AcDbEntity
  8
0
  6
CONTINUOUS
 62
         7
100
AcDbCircle
 10
141.8412350773
 20
218.7080905819
 30
0.0
 40
17.4728325488
100
AcDbArc
 50
325.3306258389
 51
67.55819853
  0
ARC
  5
C8
100
AcDbEntity
  8
0
  6
CONTINUOUS
 62
         7
100
AcDbCircle
 10
151.8522013704
 20
198.6696137466
 30
0.0
 40
11.0
100
AcDbArc
 50
316.945821208
 51
66.6515979482
  0
ARC
  5
C9
100
AcDbEntity
  8
0
  6
CONTINUOUS
 62
         7
100
AcDbCircle
 10
120.0216715377
 20
164.42958059
 30
0.0
 40
48.0
100
AcDbArc
 50
339.9526682633
 51
33.8406003205
  0
ARC
  5
CA
100
AcDbEntity
  8
0
  6
CONTINUOUS
 62
         7
100
AcDbCircle
 10
159.0977688727
 20
138.7659659368
 30
0.0
 40
11.0
100
AcDbArc
 50
236.5619430746
 51
56.8474473758
  0
ARC
  5
CB
100
AcDbEntity
  8
0
  6
CONTINUOUS
 62
         7
100
AcDbCircle
 10
120.0216715377
 20
164.42958059
 30
0.0
 40
48.0
100
AcDbArc
 50
239.9542377798
 51
313.4567221871
  0
ARC
  5
CC
100
AcDbEntity
  8
0
  6
CONTINUOUS
 62
         7
100
AcDbCircle
 10
87.6296985733
 20
130.030124381
 30
0.0
 40
11.0
100
AcDbArc
 50
133.9887122508
 51
319.4544151835
  0
ARC
  5
CD
100
AcDbEntity
  8
0
  6
CONTINUOUS
 62
         7
100
AcDbCircle
 10
120.0216715377
 20
164.42958059
 30
0.0
 40
48.0
100
AcDbArc
 50
160.5271172969
 51
213.4888896544
  0
ARC
  5
CE
100
AcDbEntity
  8
0
  6
CONTINUOUS
 62
         7
100
AcDbCircle
 10
77.2299476628
 20
191.1516850695
 30
0.0
 40
11.0
100
AcDbArc
 50
38.9698459969
 51
257.0631550141
  0
ARC
  5
CF
100
AcDbEntity
  8
0
  6
CONTINUOUS
 62
         7
100
AcDbCircle
 10
120.0216715377
 20
164.42958059
 30
0.0
 40
48.0
100
AcDbArc
 50
111.9870306647
 51
135.5058837141
  0
ARC
  5
D0
100
AcDbEntity
  8
0
  6
CONTINUOUS
 62
         7
100
AcDbCircle
 10
115.4123438363
 20
220.2395626554
 30
0.0
 40
17.5
100
AcDbArc
 50
105.6978512375
 51
220.2239166513
  0
CIRCLE
  5
D1
100
AcDbEntity
  8
0
  6
CONTINUOUS
 62
         7
100
AcDbCircle
 10
77.2299476628
 20
191.1516850695
 30
0.0
 40
4.75
  0
CIRCLE
  5
D2
100
AcDbEntity
  8
0
  6
CONTINUOUS
 62
         7
100
AcDbCircle
 10
159.0977688727
 20
138.7659659368
 30
0.0
 40
4.75
  0
ARC
  5
D3
100
AcDbEntity
  8
0
  6
CONTINUOUS
 62
         7
100
AcDbCircle
 10
141.8412350773
 20
218.7080905819
 30
0.0
 40
9.5
100
AcDbArc
 50
266.6835963925
 51
75.5353663559
  0
LINE
  5
D4
100
AcDbEntity
  8
0
  6
CONTINUOUS
 62
         7
100
AcDbLine
 10
144.2141674802
 20
227.9069596326
 30
0.0
 11
141.4819182545
 21
228.611768309
 31
0.0
  0
ARC
  5
D5
100
AcDbEntity
  8
0
  6
CONTINUOUS
 62
         7
100
AcDbCircle
 10
140.2330064635
 20
223.7702582824
 30
0.0
 40
5.0
100
AcDbArc
 50
75.5353663559
 51
152.8684611749
  0
ARC
  5
D6
100
AcDbEntity
  8
0
  6
CONTINUOUS
 62
         7
100
AcDbCircle
 10
129.1084825613
 20
229.4706940508
 30
0.0
 40
7.5
100
AcDbArc
 50
202.2402127742
 51
332.8684611749
  0
ARC
  5
D7
100
AcDbEntity
  8
0
  6
CONTINUOUS
 62
         7
100
AcDbCircle
 10
117.5384179237
 20
224.7395626554
 30
0.0
 40
5.0
100
AcDbArc
 50
22.2402127742
 51
90.0
  0
LINE
  5
D8
100
AcDbEntity
  8
0
  6
CONTINUOUS
 62
         7
100
AcDbLine
 10
117.5384179237
 20
229.7395626554
 30
0.0
 11
115.4123438363
 21
229.7395626554
 31
0.0
  0
ARC
  5
D9
100
AcDbEntity
  8
0
  6
CONTINUOUS
 62
         7
100
AcDbCircle
 10
115.4123438363
 20
220.2395626554
 30
0.0
 40
9.5
100
AcDbArc
 50
90.0
 51
228.2713849935
  0
ARC
  5
DA
100
AcDbEntity
  8
0
  6
CONTINUOUS
 62
         7
100
AcDbCircle
 10
112.4171296061
 20
216.8811863043
 30
0.0
 40
5.0
100
AcDbArc
 50
228.2713849935
 51
278.2493805971
  0
ARC
  5
DB
100
AcDbEntity
  8
0
  6
CONTINUOUS
 62
         7
100
AcDbCircle
 10
120.0216715377
 20
164.42958059
 30
0.0
 40
48.0
100
AcDbArc
 50
70.6953589441
 51
98.2493805971
  0
ARC
  5
DC
100
AcDbEntity
  8
0
  6
CONTINUOUS
 62
         7
100
AcDbCircle
 10
137.5429861168
 20
214.4496119316
 30
0.0
 40
5.0
100
AcDbArc
 50
250.6953589441
 51
266.6835963925
  0
LINE
  5
DD
100
AcDbEntity
  8
0
  6
CONTINUOUS
 62
         7
100
AcDbLine
 10
137.2537368827
 20
209.4579854552
 30
0.0
 11
141.2916615324
 21
209.2240002766
 31
0.0
  0
INSERT
  5
E5
100
AcDbEntity
  8
0
100
AcDbBlockReference
  2
SW_CENTERMARK0
 10
0.0
 20
0.0
 30
0.0
  0
INSERT
  5
ED
100
AcDbEntity
  8
0
100
AcDbBlockReference
  2
SW_CENTERMARK1
 10
0.0
 20
0.0
 30
0.0
  0
INSERT
  5
F5
100
AcDbEntity
  8
0
100
AcDbBlockReference
  2
SW_CENTERMARK2
 10
0.0
 20
0.0
 30
0.0
  0
INSERT
  5
FD
100
AcDbEntity
  8
0
100
AcDbBlockReference
  2
SW_CENTERMARK3
 10
0.0
 20
0.0
 30
0.0
  0
INSERT
  5
105
100
AcDbEntity
  8
0
100
AcDbBlockReference
  2
SW_CENTERMARK4
 10
0.0
 20
0.0
 30
0.0
  0
INSERT
  5
10D
100
AcDbEntity
  8
0
100
AcDbBlockReference
  2
SW_CENTERMARK5
 10
0.0
 20
0.0
 30
0.0
  0
INSERT
  5
115
100
AcDbEntity
  8
0
100
AcDbBlockReference
  2
SW_CENTERMARK6
 10
0.0
 20
0.0
 30
0.0
  0
INSERT
  5
11D
100
AcDbEntity
  8
0
100
AcDbBlockReference
  2
SW_CENTERMARK7
 10
0.0
 20
0.0
 30
0.0
  0
INSERT
  5
125
100
AcDbEntity
  8
0
100
AcDbBlockReference
  2
SW_CENTERMARK8
 10
0.0
 20
0.0
 30
0.0
  0
INSERT
  5
12D
100
AcDbEntity
  8
0
100
AcDbBlockReference
  2
SW_CENTERMARK9
 10
0.0
 20
0.0
 30
0.0
  0
INSERT
  5
135
100
AcDbEntity
  8
0
100
AcDbBlockReference
  2
SW_CENTERMARK10
 10
0.0
 20
0.0
 30
0.0
  0
INSERT
  5
13D
100
AcDbEntity
  8
0
100
AcDbBlockReference
  2
SW_CENTERMARK11
 10
0.0
 20
0.0
 30
0.0
  0
INSERT
  5
145
100
AcDbEntity
  8
0
100
AcDbBlockReference
  2
SW_CENTERMARK12
 10
0.0
 20
0.0
 30
0.0
  0
ENDSEC
  0
SECTION
  2
OBJECTS
  0
DICTIONARY
  5
19
100
AcDbDictionary
  3
ACAD_GROUP
350
1A
  3
ACAD_MLINESTYLE
350
1B
  0
DICTIONARY
  5
1A
102
{ACAD_REACTORS
330
19
102
}
100
AcDbDictionary
  0
DICTIONARY
  5
1B
102
{ACAD_REACTORS
330
19
102
}
100
AcDbDictionary
  3
STANDARD
350
1C
  0
MLINESTYLE
  5
1C
102
{ACAD_REACTORS
330
1B
102
}
100
AcDbMlineStyle
  2
STANDARD
 70
         0
  3

 62
         0
 51
90.0
 52
90.0
 71
         2
 49
0.5
 62
       256
  6
BYLAYER
 49
-0.5
 62
       256
  6
BYLAYER
  0
ENDSEC
  0
EOF
