ISO-10303-21;
HEADER;
/* Generated by software containing ST-Developer
 * from STEP Tools, Inc. (www.steptools.com) 
 */

FILE_DESCRIPTION(
/* description */ (''),
/* implementation_level */ '2;1');

FILE_NAME(
/* name */ 
'C:\\Users\\mfr\\Desktop\\mediatektur\\Morini 500 Lenkopf Scheibe.stp',

/* time_stamp */ '2020-04-13T16:35:52+02:00',
/* author */ ('mfr'),
/* organization */ (''),
/* preprocessor_version */ 'ST-DEVELOPER v16.5',
/* originating_system */ 'Autodesk Inventor 2017',
/* authorisation */ '');

FILE_SCHEMA (('AUTOMOTIVE_DESIGN { 1 0 10303 214 3 1 1 }'));
ENDSEC;

DATA;
#10=MECHANICAL_DESIGN_GEOMETRIC_PRESENTATION_REPRESENTATION('',(#13),#149);
#11=SHAPE_REPRESENTATION_RELATIONSHIP('SRR','None',#158,#12);
#12=ADVANCED_BREP_SHAPE_REPRESENTATION('',(#14),#148);
#13=STYLED_ITEM('',(#167),#14);
#14=MANIFOLD_SOLID_BREP('Volumenk\X\F6rper1',#81);
#15=PLANE('',#94);
#16=PLANE('',#98);
#17=CYLINDRICAL_SURFACE('',#92,20.);
#18=CYLINDRICAL_SURFACE('',#100,12.);
#19=FACE_BOUND('',#32,.T.);
#20=FACE_BOUND('',#34,.T.);
#21=FACE_BOUND('',#36,.T.);
#22=FACE_BOUND('',#38,.T.);
#23=FACE_BOUND('',#40,.T.);
#24=FACE_BOUND('',#42,.T.);
#25=FACE_OUTER_BOUND('',#31,.T.);
#26=FACE_OUTER_BOUND('',#33,.T.);
#27=FACE_OUTER_BOUND('',#35,.T.);
#28=FACE_OUTER_BOUND('',#37,.T.);
#29=FACE_OUTER_BOUND('',#39,.T.);
#30=FACE_OUTER_BOUND('',#41,.T.);
#31=EDGE_LOOP('',(#61));
#32=EDGE_LOOP('',(#62));
#33=EDGE_LOOP('',(#63));
#34=EDGE_LOOP('',(#64));
#35=EDGE_LOOP('',(#65));
#36=EDGE_LOOP('',(#66));
#37=EDGE_LOOP('',(#67));
#38=EDGE_LOOP('',(#68));
#39=EDGE_LOOP('',(#69));
#40=EDGE_LOOP('',(#70));
#41=EDGE_LOOP('',(#71));
#42=EDGE_LOOP('',(#72));
#43=CIRCLE('',#90,20.);
#44=CIRCLE('',#91,19.7);
#45=CIRCLE('',#93,20.);
#46=CIRCLE('',#95,12.);
#47=CIRCLE('',#97,19.7);
#48=CIRCLE('',#99,12.);
#49=VERTEX_POINT('',#129);
#50=VERTEX_POINT('',#131);
#51=VERTEX_POINT('',#134);
#52=VERTEX_POINT('',#137);
#53=VERTEX_POINT('',#140);
#54=VERTEX_POINT('',#143);
#55=EDGE_CURVE('',#49,#49,#43,.T.);
#56=EDGE_CURVE('',#50,#50,#44,.T.);
#57=EDGE_CURVE('',#51,#51,#45,.T.);
#58=EDGE_CURVE('',#52,#52,#46,.T.);
#59=EDGE_CURVE('',#53,#53,#47,.T.);
#60=EDGE_CURVE('',#54,#54,#48,.T.);
#61=ORIENTED_EDGE('',*,*,#55,.T.);
#62=ORIENTED_EDGE('',*,*,#56,.T.);
#63=ORIENTED_EDGE('',*,*,#57,.F.);
#64=ORIENTED_EDGE('',*,*,#55,.F.);
#65=ORIENTED_EDGE('',*,*,#56,.F.);
#66=ORIENTED_EDGE('',*,*,#58,.T.);
#67=ORIENTED_EDGE('',*,*,#57,.T.);
#68=ORIENTED_EDGE('',*,*,#59,.T.);
#69=ORIENTED_EDGE('',*,*,#59,.F.);
#70=ORIENTED_EDGE('',*,*,#60,.T.);
#71=ORIENTED_EDGE('',*,*,#60,.F.);
#72=ORIENTED_EDGE('',*,*,#58,.F.);
#73=CONICAL_SURFACE('',#89,19.85,45.);
#74=CONICAL_SURFACE('',#96,19.85,45.);
#75=ADVANCED_FACE('',(#25,#19),#73,.T.);
#76=ADVANCED_FACE('',(#26,#20),#17,.T.);
#77=ADVANCED_FACE('',(#27,#21),#15,.F.);
#78=ADVANCED_FACE('',(#28,#22),#74,.T.);
#79=ADVANCED_FACE('',(#29,#23),#16,.T.);
#80=ADVANCED_FACE('',(#30,#24),#18,.F.);
#81=CLOSED_SHELL('',(#75,#76,#77,#78,#79,#80));
#82=DATE_TIME_ROLE('creation_date');
#83=APPLIED_DATE_AND_TIME_ASSIGNMENT(#84,#82,(#160));
#84=DATE_AND_TIME(#85,#86);
#85=CALENDAR_DATE(2020,27,3);
#86=LOCAL_TIME(14,43,28.,#87);
#87=COORDINATED_UNIVERSAL_TIME_OFFSET(0,0,.BEHIND.);
#88=AXIS2_PLACEMENT_3D('placement',#127,#101,#102);
#89=AXIS2_PLACEMENT_3D('',#128,#103,#104);
#90=AXIS2_PLACEMENT_3D('',#130,#105,#106);
#91=AXIS2_PLACEMENT_3D('',#132,#107,#108);
#92=AXIS2_PLACEMENT_3D('',#133,#109,#110);
#93=AXIS2_PLACEMENT_3D('',#135,#111,#112);
#94=AXIS2_PLACEMENT_3D('',#136,#113,#114);
#95=AXIS2_PLACEMENT_3D('',#138,#115,#116);
#96=AXIS2_PLACEMENT_3D('',#139,#117,#118);
#97=AXIS2_PLACEMENT_3D('',#141,#119,#120);
#98=AXIS2_PLACEMENT_3D('',#142,#121,#122);
#99=AXIS2_PLACEMENT_3D('',#144,#123,#124);
#100=AXIS2_PLACEMENT_3D('',#145,#125,#126);
#101=DIRECTION('axis',(0.,0.,1.));
#102=DIRECTION('refdir',(1.,0.,0.));
#103=DIRECTION('center_axis',(0.,0.,1.));
#104=DIRECTION('ref_axis',(-1.,0.,0.));
#105=DIRECTION('center_axis',(0.,0.,-1.));
#106=DIRECTION('ref_axis',(-1.,0.,0.));
#107=DIRECTION('center_axis',(0.,0.,1.));
#108=DIRECTION('ref_axis',(-1.,0.,0.));
#109=DIRECTION('center_axis',(0.,0.,1.));
#110=DIRECTION('ref_axis',(-1.,0.,0.));
#111=DIRECTION('center_axis',(0.,0.,1.));
#112=DIRECTION('ref_axis',(-1.,0.,0.));
#113=DIRECTION('center_axis',(0.,0.,1.));
#114=DIRECTION('ref_axis',(1.,0.,0.));
#115=DIRECTION('center_axis',(0.,0.,1.));
#116=DIRECTION('ref_axis',(-1.,0.,0.));
#117=DIRECTION('center_axis',(0.,0.,-1.));
#118=DIRECTION('ref_axis',(-1.,0.,0.));
#119=DIRECTION('center_axis',(0.,0.,-1.));
#120=DIRECTION('ref_axis',(-1.,0.,0.));
#121=DIRECTION('center_axis',(0.,0.,1.));
#122=DIRECTION('ref_axis',(1.,0.,0.));
#123=DIRECTION('center_axis',(0.,0.,-1.));
#124=DIRECTION('ref_axis',(-1.,0.,0.));
#125=DIRECTION('center_axis',(0.,0.,1.));
#126=DIRECTION('ref_axis',(-1.,0.,0.));
#127=CARTESIAN_POINT('',(0.,0.,0.));
#128=CARTESIAN_POINT('Origin',(0.,0.,0.15));
#129=CARTESIAN_POINT('',(20.,-2.44929359829471E-15,0.3));
#130=CARTESIAN_POINT('Origin',(0.,0.,0.3));
#131=CARTESIAN_POINT('',(19.7,2.41255419432029E-15,0.));
#132=CARTESIAN_POINT('Origin',(0.,0.,0.));
#133=CARTESIAN_POINT('Origin',(0.,0.,0.));
#134=CARTESIAN_POINT('',(20.,2.44929359829471E-15,2.2));
#135=CARTESIAN_POINT('Origin',(0.,0.,2.2));
#136=CARTESIAN_POINT('Origin',(-9.4425648294133E-16,0.,0.));
#137=CARTESIAN_POINT('',(12.,1.46957615897682E-15,0.));
#138=CARTESIAN_POINT('Origin',(0.,0.,0.));
#139=CARTESIAN_POINT('Origin',(0.,0.,2.35));
#140=CARTESIAN_POINT('',(19.7,-2.41255419432029E-15,2.5));
#141=CARTESIAN_POINT('Origin',(0.,0.,2.5));
#142=CARTESIAN_POINT('Origin',(-9.4425648294133E-16,0.,2.5));
#143=CARTESIAN_POINT('',(12.,1.46957615897682E-15,2.5));
#144=CARTESIAN_POINT('Origin',(0.,0.,2.5));
#145=CARTESIAN_POINT('Origin',(0.,0.,0.));
#146=UNCERTAINTY_MEASURE_WITH_UNIT(LENGTH_MEASURE(0.01),#150,
'DISTANCE_ACCURACY_VALUE',
'Maximum model space distance between geometric entities at asserted c
onnectivities');
#147=UNCERTAINTY_MEASURE_WITH_UNIT(LENGTH_MEASURE(1.E-6),#150,
'DISTANCE_ACCURACY_VALUE',
'Maximum model space distance between geometric entities at asserted c
onnectivities');
#148=(
GEOMETRIC_REPRESENTATION_CONTEXT(3)
GLOBAL_UNCERTAINTY_ASSIGNED_CONTEXT((#146))
GLOBAL_UNIT_ASSIGNED_CONTEXT((#150,#153,#151))
REPRESENTATION_CONTEXT('','3D')
);
#149=(
GEOMETRIC_REPRESENTATION_CONTEXT(3)
GLOBAL_UNCERTAINTY_ASSIGNED_CONTEXT((#147))
GLOBAL_UNIT_ASSIGNED_CONTEXT((#150,#153,#151))
REPRESENTATION_CONTEXT('','3D')
);
#150=(
LENGTH_UNIT()
NAMED_UNIT(*)
SI_UNIT(.MILLI.,.METRE.)
);
#151=(
NAMED_UNIT(*)
SI_UNIT($,.STERADIAN.)
SOLID_ANGLE_UNIT()
);
#152=DIMENSIONAL_EXPONENTS(0.,0.,0.,0.,0.,0.,0.);
#153=(
CONVERSION_BASED_UNIT('degree',#155)
NAMED_UNIT(#152)
PLANE_ANGLE_UNIT()
);
#154=(
NAMED_UNIT(*)
PLANE_ANGLE_UNIT()
SI_UNIT($,.RADIAN.)
);
#155=PLANE_ANGLE_MEASURE_WITH_UNIT(PLANE_ANGLE_MEASURE(0.01745329252),#154);
#156=SHAPE_DEFINITION_REPRESENTATION(#157,#158);
#157=PRODUCT_DEFINITION_SHAPE('',$,#160);
#158=SHAPE_REPRESENTATION('',(#88),#148);
#159=PRODUCT_DEFINITION_CONTEXT('part definition',#164,'design');
#160=PRODUCT_DEFINITION('Morini 500 Lenkopf Scheibe',
'Morini 500 Lenkopf Scheibe',#161,#159);
#161=PRODUCT_DEFINITION_FORMATION('',$,#166);
#162=PRODUCT_RELATED_PRODUCT_CATEGORY('Morini 500 Lenkopf Scheibe',
'Morini 500 Lenkopf Scheibe',(#166));
#163=APPLICATION_PROTOCOL_DEFINITION('international standard',
'automotive_design',2009,#164);
#164=APPLICATION_CONTEXT(
'Core Data for Automotive Mechanical Design Process');
#165=PRODUCT_CONTEXT('part definition',#164,'mechanical');
#166=PRODUCT('Morini 500 Lenkopf Scheibe','Morini 500 Lenkopf Scheibe',
$,(#165));
#167=PRESENTATION_STYLE_ASSIGNMENT((#168));
#168=SURFACE_STYLE_USAGE(.BOTH.,#169);
#169=SURFACE_SIDE_STYLE('',(#170));
#170=SURFACE_STYLE_FILL_AREA(#171);
#171=FILL_AREA_STYLE('',(#172));
#172=FILL_AREA_STYLE_COLOUR('',#173);
#173=COLOUR_RGB('',0.745098039215686,0.737254901960784,0.729411764705882);
ENDSEC;
END-ISO-10303-21;
