ISO-10303-21;
HEADER;
/* Generated by software containing ST-Developer
 * from STEP Tools, Inc. (www.steptools.com) 
 */

FILE_DESCRIPTION(
/* description */ (''),
/* implementation_level */ '2;1');

FILE_NAME(
/* name */ 
'C:\\Users\\mfr\\Desktop\\mediatektur\\Morini 500 Sicherung Scheibe hi
nten.stp',
/* time_stamp */ '2020-04-13T16:31:09+02:00',
/* author */ ('mfr'),
/* organization */ (''),
/* preprocessor_version */ 'ST-DEVELOPER v16.5',
/* originating_system */ 'Autodesk Inventor 2017',
/* authorisation */ '');

FILE_SCHEMA (('AUTOMOTIVE_DESIGN { 1 0 10303 214 3 1 1 }'));
ENDSEC;

DATA;
#10=MECHANICAL_DESIGN_GEOMETRIC_PRESENTATION_REPRESENTATION('',(#13),#533);
#11=SHAPE_REPRESENTATION_RELATIONSHIP('SRR','None',#542,#12);
#12=ADVANCED_BREP_SHAPE_REPRESENTATION('',(#14),#532);
#13=STYLED_ITEM('',(#551),#14);
#14=MANIFOLD_SOLID_BREP('Volumenk\X\F6rper1',#291);
#15=FACE_BOUND('',#45,.T.);
#16=FACE_BOUND('',#46,.T.);
#17=FACE_BOUND('',#51,.T.);
#18=FACE_BOUND('',#52,.T.);
#19=FACE_BOUND('',#58,.T.);
#20=FACE_BOUND('',#60,.T.);
#21=PLANE('',#314);
#22=PLANE('',#330);
#23=FACE_OUTER_BOUND('',#39,.T.);
#24=FACE_OUTER_BOUND('',#40,.T.);
#25=FACE_OUTER_BOUND('',#41,.T.);
#26=FACE_OUTER_BOUND('',#42,.T.);
#27=FACE_OUTER_BOUND('',#43,.T.);
#28=FACE_OUTER_BOUND('',#44,.T.);
#29=FACE_OUTER_BOUND('',#47,.T.);
#30=FACE_OUTER_BOUND('',#48,.T.);
#31=FACE_OUTER_BOUND('',#49,.T.);
#32=FACE_OUTER_BOUND('',#50,.T.);
#33=FACE_OUTER_BOUND('',#53,.T.);
#34=FACE_OUTER_BOUND('',#54,.T.);
#35=FACE_OUTER_BOUND('',#55,.T.);
#36=FACE_OUTER_BOUND('',#56,.T.);
#37=FACE_OUTER_BOUND('',#57,.T.);
#38=FACE_OUTER_BOUND('',#59,.T.);
#39=EDGE_LOOP('',(#181,#182,#183,#184));
#40=EDGE_LOOP('',(#185,#186,#187,#188));
#41=EDGE_LOOP('',(#189,#190,#191,#192));
#42=EDGE_LOOP('',(#193,#194,#195,#196));
#43=EDGE_LOOP('',(#197,#198,#199,#200));
#44=EDGE_LOOP('',(#201,#202,#203,#204,#205,#206,#207,#208,#209,#210,#211,
#212));
#45=EDGE_LOOP('',(#213));
#46=EDGE_LOOP('',(#214));
#47=EDGE_LOOP('',(#215,#216,#217,#218));
#48=EDGE_LOOP('',(#219,#220,#221,#222));
#49=EDGE_LOOP('',(#223,#224,#225,#226));
#50=EDGE_LOOP('',(#227,#228,#229,#230,#231,#232,#233,#234,#235,#236,#237,
#238));
#51=EDGE_LOOP('',(#239));
#52=EDGE_LOOP('',(#240));
#53=EDGE_LOOP('',(#241,#242,#243,#244));
#54=EDGE_LOOP('',(#245,#246,#247,#248));
#55=EDGE_LOOP('',(#249,#250,#251,#252));
#56=EDGE_LOOP('',(#253,#254,#255,#256));
#57=EDGE_LOOP('',(#257));
#58=EDGE_LOOP('',(#258));
#59=EDGE_LOOP('',(#259));
#60=EDGE_LOOP('',(#260));
#61=LINE('',#451,#73);
#62=LINE('',#454,#74);
#63=LINE('',#459,#75);
#64=LINE('',#466,#76);
#65=LINE('',#469,#77);
#66=LINE('',#477,#78);
#67=LINE('',#500,#79);
#68=LINE('',#505,#80);
#69=LINE('',#506,#81);
#70=LINE('',#522,#82);
#71=LINE('',#524,#83);
#72=LINE('',#526,#84);
#73=VECTOR('',#349,10.);
#74=VECTOR('',#352,10.);
#75=VECTOR('',#357,10.);
#76=VECTOR('',#364,10.);
#77=VECTOR('',#367,10.);
#78=VECTOR('',#378,10.);
#79=VECTOR('',#405,8.25);
#80=VECTOR('',#410,8.25);
#81=VECTOR('',#411,10.);
#82=VECTOR('',#432,10.);
#83=VECTOR('',#435,10.);
#84=VECTOR('',#438,10.);
#85=CIRCLE('',#300,2.);
#86=CIRCLE('',#301,2.);
#87=CIRCLE('',#303,8.25);
#88=CIRCLE('',#304,8.25);
#89=CIRCLE('',#306,2.);
#90=CIRCLE('',#307,2.);
#91=CIRCLE('',#309,52.7);
#92=CIRCLE('',#310,52.7);
#93=CIRCLE('',#312,8.25);
#94=CIRCLE('',#313,8.25);
#95=CIRCLE('',#315,58.9986671294533);
#96=CIRCLE('',#316,8.25);
#97=CIRCLE('',#317,8.25);
#98=CIRCLE('',#318,42.5);
#99=CIRCLE('',#319,8.25);
#100=CIRCLE('',#320,8.24999999999999);
#101=CIRCLE('',#321,58.9986671294532);
#102=CIRCLE('',#322,4.1);
#103=CIRCLE('',#323,4.1);
#104=CIRCLE('',#325,58.9986671294533);
#105=CIRCLE('',#327,8.24999999999999);
#106=CIRCLE('',#329,58.9986671294532);
#107=CIRCLE('',#331,8.25);
#108=CIRCLE('',#332,42.5);
#109=CIRCLE('',#333,8.25);
#110=CIRCLE('',#334,8.25);
#111=CIRCLE('',#335,4.1);
#112=CIRCLE('',#336,4.1);
#113=VERTEX_POINT('',#447);
#114=VERTEX_POINT('',#448);
#115=VERTEX_POINT('',#450);
#116=VERTEX_POINT('',#452);
#117=VERTEX_POINT('',#456);
#118=VERTEX_POINT('',#458);
#119=VERTEX_POINT('',#462);
#120=VERTEX_POINT('',#463);
#121=VERTEX_POINT('',#465);
#122=VERTEX_POINT('',#467);
#123=VERTEX_POINT('',#474);
#124=VERTEX_POINT('',#476);
#125=VERTEX_POINT('',#480);
#126=VERTEX_POINT('',#482);
#127=VERTEX_POINT('',#484);
#128=VERTEX_POINT('',#486);
#129=VERTEX_POINT('',#488);
#130=VERTEX_POINT('',#490);
#131=VERTEX_POINT('',#493);
#132=VERTEX_POINT('',#495);
#133=VERTEX_POINT('',#498);
#134=VERTEX_POINT('',#502);
#135=VERTEX_POINT('',#503);
#136=VERTEX_POINT('',#510);
#137=VERTEX_POINT('',#512);
#138=VERTEX_POINT('',#514);
#139=VERTEX_POINT('',#517);
#140=VERTEX_POINT('',#519);
#141=EDGE_CURVE('',#113,#114,#85,.T.);
#142=EDGE_CURVE('',#114,#115,#61,.T.);
#143=EDGE_CURVE('',#115,#116,#86,.T.);
#144=EDGE_CURVE('',#116,#113,#62,.T.);
#145=EDGE_CURVE('',#117,#114,#87,.T.);
#146=EDGE_CURVE('',#118,#117,#63,.T.);
#147=EDGE_CURVE('',#115,#118,#88,.T.);
#148=EDGE_CURVE('',#119,#120,#89,.T.);
#149=EDGE_CURVE('',#120,#121,#64,.T.);
#150=EDGE_CURVE('',#121,#122,#90,.T.);
#151=EDGE_CURVE('',#122,#119,#65,.T.);
#152=EDGE_CURVE('',#121,#116,#91,.T.);
#153=EDGE_CURVE('',#113,#120,#92,.T.);
#154=EDGE_CURVE('',#123,#122,#93,.T.);
#155=EDGE_CURVE('',#124,#123,#66,.T.);
#156=EDGE_CURVE('',#119,#124,#94,.T.);
#157=EDGE_CURVE('',#125,#118,#95,.T.);
#158=EDGE_CURVE('',#126,#125,#96,.T.);
#159=EDGE_CURVE('',#127,#126,#97,.T.);
#160=EDGE_CURVE('',#128,#127,#98,.T.);
#161=EDGE_CURVE('',#129,#128,#99,.T.);
#162=EDGE_CURVE('',#130,#129,#100,.T.);
#163=EDGE_CURVE('',#123,#130,#101,.T.);
#164=EDGE_CURVE('',#131,#131,#102,.T.);
#165=EDGE_CURVE('',#132,#132,#103,.T.);
#166=EDGE_CURVE('',#117,#133,#104,.T.);
#167=EDGE_CURVE('',#125,#133,#67,.T.);
#168=EDGE_CURVE('',#134,#135,#105,.T.);
#169=EDGE_CURVE('',#135,#130,#68,.T.);
#170=EDGE_CURVE('',#134,#129,#69,.T.);
#171=EDGE_CURVE('',#135,#124,#106,.T.);
#172=EDGE_CURVE('',#136,#134,#107,.T.);
#173=EDGE_CURVE('',#137,#136,#108,.T.);
#174=EDGE_CURVE('',#138,#137,#109,.T.);
#175=EDGE_CURVE('',#133,#138,#110,.T.);
#176=EDGE_CURVE('',#139,#139,#111,.T.);
#177=EDGE_CURVE('',#140,#140,#112,.T.);
#178=EDGE_CURVE('',#126,#138,#70,.T.);
#179=EDGE_CURVE('',#137,#127,#71,.T.);
#180=EDGE_CURVE('',#128,#136,#72,.T.);
#181=ORIENTED_EDGE('',*,*,#141,.T.);
#182=ORIENTED_EDGE('',*,*,#142,.T.);
#183=ORIENTED_EDGE('',*,*,#143,.T.);
#184=ORIENTED_EDGE('',*,*,#144,.T.);
#185=ORIENTED_EDGE('',*,*,#142,.F.);
#186=ORIENTED_EDGE('',*,*,#145,.F.);
#187=ORIENTED_EDGE('',*,*,#146,.F.);
#188=ORIENTED_EDGE('',*,*,#147,.F.);
#189=ORIENTED_EDGE('',*,*,#148,.T.);
#190=ORIENTED_EDGE('',*,*,#149,.T.);
#191=ORIENTED_EDGE('',*,*,#150,.T.);
#192=ORIENTED_EDGE('',*,*,#151,.T.);
#193=ORIENTED_EDGE('',*,*,#144,.F.);
#194=ORIENTED_EDGE('',*,*,#152,.F.);
#195=ORIENTED_EDGE('',*,*,#149,.F.);
#196=ORIENTED_EDGE('',*,*,#153,.F.);
#197=ORIENTED_EDGE('',*,*,#151,.F.);
#198=ORIENTED_EDGE('',*,*,#154,.F.);
#199=ORIENTED_EDGE('',*,*,#155,.F.);
#200=ORIENTED_EDGE('',*,*,#156,.F.);
#201=ORIENTED_EDGE('',*,*,#154,.T.);
#202=ORIENTED_EDGE('',*,*,#150,.F.);
#203=ORIENTED_EDGE('',*,*,#152,.T.);
#204=ORIENTED_EDGE('',*,*,#143,.F.);
#205=ORIENTED_EDGE('',*,*,#147,.T.);
#206=ORIENTED_EDGE('',*,*,#157,.F.);
#207=ORIENTED_EDGE('',*,*,#158,.F.);
#208=ORIENTED_EDGE('',*,*,#159,.F.);
#209=ORIENTED_EDGE('',*,*,#160,.F.);
#210=ORIENTED_EDGE('',*,*,#161,.F.);
#211=ORIENTED_EDGE('',*,*,#162,.F.);
#212=ORIENTED_EDGE('',*,*,#163,.F.);
#213=ORIENTED_EDGE('',*,*,#164,.T.);
#214=ORIENTED_EDGE('',*,*,#165,.T.);
#215=ORIENTED_EDGE('',*,*,#146,.T.);
#216=ORIENTED_EDGE('',*,*,#166,.T.);
#217=ORIENTED_EDGE('',*,*,#167,.F.);
#218=ORIENTED_EDGE('',*,*,#157,.T.);
#219=ORIENTED_EDGE('',*,*,#168,.T.);
#220=ORIENTED_EDGE('',*,*,#169,.T.);
#221=ORIENTED_EDGE('',*,*,#162,.T.);
#222=ORIENTED_EDGE('',*,*,#170,.F.);
#223=ORIENTED_EDGE('',*,*,#155,.T.);
#224=ORIENTED_EDGE('',*,*,#163,.T.);
#225=ORIENTED_EDGE('',*,*,#169,.F.);
#226=ORIENTED_EDGE('',*,*,#171,.T.);
#227=ORIENTED_EDGE('',*,*,#156,.T.);
#228=ORIENTED_EDGE('',*,*,#171,.F.);
#229=ORIENTED_EDGE('',*,*,#168,.F.);
#230=ORIENTED_EDGE('',*,*,#172,.F.);
#231=ORIENTED_EDGE('',*,*,#173,.F.);
#232=ORIENTED_EDGE('',*,*,#174,.F.);
#233=ORIENTED_EDGE('',*,*,#175,.F.);
#234=ORIENTED_EDGE('',*,*,#166,.F.);
#235=ORIENTED_EDGE('',*,*,#145,.T.);
#236=ORIENTED_EDGE('',*,*,#141,.F.);
#237=ORIENTED_EDGE('',*,*,#153,.T.);
#238=ORIENTED_EDGE('',*,*,#148,.F.);
#239=ORIENTED_EDGE('',*,*,#176,.T.);
#240=ORIENTED_EDGE('',*,*,#177,.T.);
#241=ORIENTED_EDGE('',*,*,#158,.T.);
#242=ORIENTED_EDGE('',*,*,#167,.T.);
#243=ORIENTED_EDGE('',*,*,#175,.T.);
#244=ORIENTED_EDGE('',*,*,#178,.F.);
#245=ORIENTED_EDGE('',*,*,#174,.T.);
#246=ORIENTED_EDGE('',*,*,#179,.T.);
#247=ORIENTED_EDGE('',*,*,#159,.T.);
#248=ORIENTED_EDGE('',*,*,#178,.T.);
#249=ORIENTED_EDGE('',*,*,#179,.F.);
#250=ORIENTED_EDGE('',*,*,#173,.T.);
#251=ORIENTED_EDGE('',*,*,#180,.F.);
#252=ORIENTED_EDGE('',*,*,#160,.T.);
#253=ORIENTED_EDGE('',*,*,#172,.T.);
#254=ORIENTED_EDGE('',*,*,#170,.T.);
#255=ORIENTED_EDGE('',*,*,#161,.T.);
#256=ORIENTED_EDGE('',*,*,#180,.T.);
#257=ORIENTED_EDGE('',*,*,#176,.F.);
#258=ORIENTED_EDGE('',*,*,#165,.F.);
#259=ORIENTED_EDGE('',*,*,#177,.F.);
#260=ORIENTED_EDGE('',*,*,#164,.F.);
#261=CYLINDRICAL_SURFACE('',#299,2.);
#262=CYLINDRICAL_SURFACE('',#302,8.25);
#263=CYLINDRICAL_SURFACE('',#305,2.);
#264=CYLINDRICAL_SURFACE('',#308,52.7);
#265=CYLINDRICAL_SURFACE('',#311,8.25);
#266=CYLINDRICAL_SURFACE('',#324,58.9986671294533);
#267=CYLINDRICAL_SURFACE('',#326,8.24999999999999);
#268=CYLINDRICAL_SURFACE('',#328,58.9986671294532);
#269=CYLINDRICAL_SURFACE('',#337,8.25);
#270=CYLINDRICAL_SURFACE('',#338,8.25);
#271=CYLINDRICAL_SURFACE('',#339,42.5);
#272=CYLINDRICAL_SURFACE('',#340,8.25);
#273=CYLINDRICAL_SURFACE('',#341,4.1);
#274=CYLINDRICAL_SURFACE('',#342,4.1);
#275=ADVANCED_FACE('',(#23),#261,.F.);
#276=ADVANCED_FACE('',(#24),#262,.T.);
#277=ADVANCED_FACE('',(#25),#263,.F.);
#278=ADVANCED_FACE('',(#26),#264,.T.);
#279=ADVANCED_FACE('',(#27),#265,.T.);
#280=ADVANCED_FACE('',(#28,#15,#16),#21,.F.);
#281=ADVANCED_FACE('',(#29),#266,.T.);
#282=ADVANCED_FACE('',(#30),#267,.T.);
#283=ADVANCED_FACE('',(#31),#268,.T.);
#284=ADVANCED_FACE('',(#32,#17,#18),#22,.T.);
#285=ADVANCED_FACE('',(#33),#269,.T.);
#286=ADVANCED_FACE('',(#34),#270,.T.);
#287=ADVANCED_FACE('',(#35),#271,.F.);
#288=ADVANCED_FACE('',(#36),#272,.T.);
#289=ADVANCED_FACE('',(#37,#19),#273,.F.);
#290=ADVANCED_FACE('',(#38,#20),#274,.F.);
#291=CLOSED_SHELL('',(#275,#276,#277,#278,#279,#280,#281,#282,#283,#284,
#285,#286,#287,#288,#289,#290));
#292=DATE_TIME_ROLE('creation_date');
#293=APPLIED_DATE_AND_TIME_ASSIGNMENT(#294,#292,(#544));
#294=DATE_AND_TIME(#295,#296);
#295=CALENDAR_DATE(2020,28,3);
#296=LOCAL_TIME(10,56,20.,#297);
#297=COORDINATED_UNIVERSAL_TIME_OFFSET(0,0,.BEHIND.);
#298=AXIS2_PLACEMENT_3D('placement',#445,#343,#344);
#299=AXIS2_PLACEMENT_3D('',#446,#345,#346);
#300=AXIS2_PLACEMENT_3D('',#449,#347,#348);
#301=AXIS2_PLACEMENT_3D('',#453,#350,#351);
#302=AXIS2_PLACEMENT_3D('',#455,#353,#354);
#303=AXIS2_PLACEMENT_3D('',#457,#355,#356);
#304=AXIS2_PLACEMENT_3D('',#460,#358,#359);
#305=AXIS2_PLACEMENT_3D('',#461,#360,#361);
#306=AXIS2_PLACEMENT_3D('',#464,#362,#363);
#307=AXIS2_PLACEMENT_3D('',#468,#365,#366);
#308=AXIS2_PLACEMENT_3D('',#470,#368,#369);
#309=AXIS2_PLACEMENT_3D('',#471,#370,#371);
#310=AXIS2_PLACEMENT_3D('',#472,#372,#373);
#311=AXIS2_PLACEMENT_3D('',#473,#374,#375);
#312=AXIS2_PLACEMENT_3D('',#475,#376,#377);
#313=AXIS2_PLACEMENT_3D('',#478,#379,#380);
#314=AXIS2_PLACEMENT_3D('',#479,#381,#382);
#315=AXIS2_PLACEMENT_3D('',#481,#383,#384);
#316=AXIS2_PLACEMENT_3D('',#483,#385,#386);
#317=AXIS2_PLACEMENT_3D('',#485,#387,#388);
#318=AXIS2_PLACEMENT_3D('',#487,#389,#390);
#319=AXIS2_PLACEMENT_3D('',#489,#391,#392);
#320=AXIS2_PLACEMENT_3D('',#491,#393,#394);
#321=AXIS2_PLACEMENT_3D('',#492,#395,#396);
#322=AXIS2_PLACEMENT_3D('',#494,#397,#398);
#323=AXIS2_PLACEMENT_3D('',#496,#399,#400);
#324=AXIS2_PLACEMENT_3D('',#497,#401,#402);
#325=AXIS2_PLACEMENT_3D('',#499,#403,#404);
#326=AXIS2_PLACEMENT_3D('',#501,#406,#407);
#327=AXIS2_PLACEMENT_3D('',#504,#408,#409);
#328=AXIS2_PLACEMENT_3D('',#507,#412,#413);
#329=AXIS2_PLACEMENT_3D('',#508,#414,#415);
#330=AXIS2_PLACEMENT_3D('',#509,#416,#417);
#331=AXIS2_PLACEMENT_3D('',#511,#418,#419);
#332=AXIS2_PLACEMENT_3D('',#513,#420,#421);
#333=AXIS2_PLACEMENT_3D('',#515,#422,#423);
#334=AXIS2_PLACEMENT_3D('',#516,#424,#425);
#335=AXIS2_PLACEMENT_3D('',#518,#426,#427);
#336=AXIS2_PLACEMENT_3D('',#520,#428,#429);
#337=AXIS2_PLACEMENT_3D('',#521,#430,#431);
#338=AXIS2_PLACEMENT_3D('',#523,#433,#434);
#339=AXIS2_PLACEMENT_3D('',#525,#436,#437);
#340=AXIS2_PLACEMENT_3D('',#527,#439,#440);
#341=AXIS2_PLACEMENT_3D('',#528,#441,#442);
#342=AXIS2_PLACEMENT_3D('',#529,#443,#444);
#343=DIRECTION('axis',(0.,0.,1.));
#344=DIRECTION('refdir',(1.,0.,0.));
#345=DIRECTION('center_axis',(0.,0.,-1.));
#346=DIRECTION('ref_axis',(0.198334250996516,-0.980134442248435,0.));
#347=DIRECTION('center_axis',(0.,0.,1.));
#348=DIRECTION('ref_axis',(0.198334250996516,-0.980134442248435,0.));
#349=DIRECTION('',(0.,0.,-1.));
#350=DIRECTION('center_axis',(0.,0.,-1.));
#351=DIRECTION('ref_axis',(0.198334250996516,-0.980134442248435,0.));
#352=DIRECTION('',(0.,0.,1.));
#353=DIRECTION('center_axis',(0.,0.,-1.));
#354=DIRECTION('ref_axis',(-0.5,-0.866025403784439,0.));
#355=DIRECTION('center_axis',(0.,0.,1.));
#356=DIRECTION('ref_axis',(-0.5,-0.866025403784439,0.));
#357=DIRECTION('',(0.,0.,1.));
#358=DIRECTION('center_axis',(0.,0.,-1.));
#359=DIRECTION('ref_axis',(-0.5,-0.866025403784439,0.));
#360=DIRECTION('center_axis',(0.,0.,-1.));
#361=DIRECTION('ref_axis',(-0.198259380018354,-0.980149589723292,0.));
#362=DIRECTION('center_axis',(0.,0.,1.));
#363=DIRECTION('ref_axis',(-0.198259380018354,-0.980149589723292,0.));
#364=DIRECTION('',(0.,0.,-1.));
#365=DIRECTION('center_axis',(0.,0.,-1.));
#366=DIRECTION('ref_axis',(-0.198259380018354,-0.980149589723292,0.));
#367=DIRECTION('',(0.,0.,1.));
#368=DIRECTION('center_axis',(0.,0.,1.));
#369=DIRECTION('ref_axis',(0.266247189802816,0.963904784676424,0.));
#370=DIRECTION('center_axis',(0.,0.,-1.));
#371=DIRECTION('ref_axis',(-0.360158420730932,-0.932891157625905,0.));
#372=DIRECTION('center_axis',(0.,0.,1.));
#373=DIRECTION('ref_axis',(-0.360158420730932,-0.932891157625905,0.));
#374=DIRECTION('center_axis',(0.,0.,-1.));
#375=DIRECTION('ref_axis',(-0.775003138797218,-0.631957383732843,0.));
#376=DIRECTION('center_axis',(0.,0.,-1.));
#377=DIRECTION('ref_axis',(-0.775003138797218,-0.631957383732843,0.));
#378=DIRECTION('',(0.,0.,-1.));
#379=DIRECTION('center_axis',(0.,0.,1.));
#380=DIRECTION('ref_axis',(-0.775003138797218,-0.631957383732843,0.));
#381=DIRECTION('center_axis',(0.,0.,1.));
#382=DIRECTION('ref_axis',(1.,0.,0.));
#383=DIRECTION('center_axis',(0.,0.,1.));
#384=DIRECTION('ref_axis',(0.654396031479676,0.756151991324264,0.));
#385=DIRECTION('center_axis',(0.,0.,1.));
#386=DIRECTION('ref_axis',(0.582793512186008,0.812620281653059,0.));
#387=DIRECTION('center_axis',(0.,0.,1.));
#388=DIRECTION('ref_axis',(0.186774505679393,-0.982402811492424,0.));
#389=DIRECTION('center_axis',(0.,0.,-1.));
#390=DIRECTION('ref_axis',(-0.679671837035637,-0.733516321522979,0.));
#391=DIRECTION('center_axis',(0.,0.,1.));
#392=DIRECTION('ref_axis',(-0.186904334806153,-0.982378119478783,0.));
#393=DIRECTION('center_axis',(0.,0.,1.));
#394=DIRECTION('ref_axis',(-0.582794567678056,0.812619524676184,0.));
#395=DIRECTION('center_axis',(0.,0.,1.));
#396=DIRECTION('ref_axis',(-0.327664848719858,0.944794023538143,0.));
#397=DIRECTION('center_axis',(0.,0.,1.));
#398=DIRECTION('ref_axis',(-1.,0.,0.));
#399=DIRECTION('center_axis',(0.,0.,1.));
#400=DIRECTION('ref_axis',(-1.,0.,0.));
#401=DIRECTION('center_axis',(0.,0.,1.));
#402=DIRECTION('ref_axis',(0.654396031479676,0.756151991324264,0.));
#403=DIRECTION('center_axis',(0.,0.,-1.));
#404=DIRECTION('ref_axis',(0.654396031479676,0.756151991324264,0.));
#405=DIRECTION('',(0.,0.,1.));
#406=DIRECTION('center_axis',(0.,0.,1.));
#407=DIRECTION('ref_axis',(-0.582794567678056,0.812619524676184,0.));
#408=DIRECTION('center_axis',(0.,0.,-1.));
#409=DIRECTION('ref_axis',(-0.582794567678056,0.812619524676184,0.));
#410=DIRECTION('',(0.,0.,-1.));
#411=DIRECTION('',(0.,0.,-1.));
#412=DIRECTION('center_axis',(0.,0.,1.));
#413=DIRECTION('ref_axis',(-0.327664848719858,0.944794023538143,0.));
#414=DIRECTION('center_axis',(0.,0.,-1.));
#415=DIRECTION('ref_axis',(-0.327664848719858,0.944794023538143,0.));
#416=DIRECTION('center_axis',(0.,0.,1.));
#417=DIRECTION('ref_axis',(1.,0.,0.));
#418=DIRECTION('center_axis',(0.,0.,-1.));
#419=DIRECTION('ref_axis',(-0.186904334806153,-0.982378119478783,0.));
#420=DIRECTION('center_axis',(0.,0.,1.));
#421=DIRECTION('ref_axis',(-0.679671837035637,-0.733516321522979,0.));
#422=DIRECTION('center_axis',(0.,0.,-1.));
#423=DIRECTION('ref_axis',(0.186774505679393,-0.982402811492424,0.));
#424=DIRECTION('center_axis',(0.,0.,-1.));
#425=DIRECTION('ref_axis',(0.582793512186008,0.812620281653059,0.));
#426=DIRECTION('center_axis',(0.,0.,-1.));
#427=DIRECTION('ref_axis',(-1.,0.,0.));
#428=DIRECTION('center_axis',(0.,0.,-1.));
#429=DIRECTION('ref_axis',(-1.,0.,0.));
#430=DIRECTION('center_axis',(0.,0.,-1.));
#431=DIRECTION('ref_axis',(0.582793512186008,0.812620281653059,0.));
#432=DIRECTION('',(0.,0.,1.));
#433=DIRECTION('center_axis',(0.,0.,1.));
#434=DIRECTION('ref_axis',(0.186774505679393,-0.982402811492424,0.));
#435=DIRECTION('',(0.,0.,-1.));
#436=DIRECTION('center_axis',(0.,0.,1.));
#437=DIRECTION('ref_axis',(-0.679671837035637,-0.733516321522979,0.));
#438=DIRECTION('',(0.,0.,1.));
#439=DIRECTION('center_axis',(0.,0.,1.));
#440=DIRECTION('ref_axis',(-0.186904334806153,-0.982378119478783,0.));
#441=DIRECTION('center_axis',(0.,0.,1.));
#442=DIRECTION('ref_axis',(-1.,0.,0.));
#443=DIRECTION('center_axis',(0.,0.,1.));
#444=DIRECTION('ref_axis',(-1.,0.,0.));
#445=CARTESIAN_POINT('',(0.,0.,0.));
#446=CARTESIAN_POINT('Origin',(18.4396851879942,51.4982330781132,0.));
#447=CARTESIAN_POINT('',(17.7654736637531,49.6152995103576,1.));
#448=CARTESIAN_POINT('',(19.7929173464344,50.0255611101028,1.));
#449=CARTESIAN_POINT('Origin',(18.4396851879942,51.4982330781132,1.));
#450=CARTESIAN_POINT('',(19.7929173464344,50.0255611101028,0.));
#451=CARTESIAN_POINT('',(19.7929173464344,50.0255611101028,0.));
#452=CARTESIAN_POINT('',(17.7654736637531,49.6152995103576,0.));
#453=CARTESIAN_POINT('Origin',(18.4396851879942,51.4982330781132,0.));
#454=CARTESIAN_POINT('',(17.7654736637531,49.6152995103576,0.));
#455=CARTESIAN_POINT('Origin',(25.375,43.9507892420603,1.));
#456=CARTESIAN_POINT('',(29.3607565013754,51.1741018555184,1.));
#457=CARTESIAN_POINT('Origin',(25.375,43.9507892420603,1.));
#458=CARTESIAN_POINT('',(29.3607565013754,51.1741018555184,0.));
#459=CARTESIAN_POINT('',(29.3607565013739,51.1741018555192,1.));
#460=CARTESIAN_POINT('Origin',(25.375,43.9507892420603,0.));
#461=CARTESIAN_POINT('Origin',(-18.4401096793273,51.4980810808944,1.));
#462=CARTESIAN_POINT('',(-19.7931289740394,50.0252135416578,1.));
#463=CARTESIAN_POINT('',(-17.7658826343794,49.6151530706241,1.));
#464=CARTESIAN_POINT('Origin',(-18.4401096793273,51.4980810808944,1.));
#465=CARTESIAN_POINT('',(-17.7658826343794,49.6151530706241,0.));
#466=CARTESIAN_POINT('',(-17.7658826343794,49.6151530706241,1.));
#467=CARTESIAN_POINT('',(-19.7931289740394,50.0252135416578,0.));
#468=CARTESIAN_POINT('Origin',(-18.4401096793273,51.4980810808944,0.));
#469=CARTESIAN_POINT('',(-19.7931289740394,50.0252135416578,1.));
#470=CARTESIAN_POINT('Origin',(0.,0.,0.));
#471=CARTESIAN_POINT('Origin',(0.,0.,0.));
#472=CARTESIAN_POINT('Origin',(0.,0.,1.));
#473=CARTESIAN_POINT('Origin',(-25.3743335647266,43.9496349423068,1.));
#474=CARTESIAN_POINT('',(-29.4993335647266,51.0943445235284,0.));
#475=CARTESIAN_POINT('Origin',(-25.3743335647266,43.9496349423068,0.));
#476=CARTESIAN_POINT('',(-29.4993335647266,51.0943445235284,1.));
#477=CARTESIAN_POINT('',(-29.4993335647266,51.0943445235284,0.));
#478=CARTESIAN_POINT('Origin',(-25.3743335647266,43.9496349423068,1.));
#479=CARTESIAN_POINT('Origin',(7.56321501982349E-6,44.1268035899244,0.));
#480=CARTESIAN_POINT('',(34.3840404306673,47.9435134998914,0.));
#481=CARTESIAN_POINT('Origin',(0.,0.,0.));
#482=CARTESIAN_POINT('',(36.5095507324632,36.7685695304249,0.));
#483=CARTESIAN_POINT('Origin',(29.5759939551327,41.2393961762536,0.));
#484=CARTESIAN_POINT('',(24.768679476752,34.5363940934476,0.));
#485=CARTESIAN_POINT('Origin',(29.5767172575333,41.2405176527639,0.));
#486=CARTESIAN_POINT('',(-24.7687240929083,34.5363620957591,0.));
#487=CARTESIAN_POINT('Origin',(0.,0.,0.));
#488=CARTESIAN_POINT('',(-36.5107915345542,36.770372871156,0.));
#489=CARTESIAN_POINT('Origin',(-29.5767705344729,41.2404794437594,0.));
#490=CARTESIAN_POINT('',(-34.3841027032913,47.9434688392647,0.));
#491=CARTESIAN_POINT('Origin',(-29.5760475199473,41.2393577606862,0.));
#492=CARTESIAN_POINT('Origin',(0.,0.,0.));
#493=CARTESIAN_POINT('',(-21.2743335647266,43.9496349423068,0.));
#494=CARTESIAN_POINT('Origin',(-25.3743335647266,43.9496349423068,0.));
#495=CARTESIAN_POINT('',(29.475,43.9507892420603,0.));
#496=CARTESIAN_POINT('Origin',(25.375,43.9507892420603,0.));
#497=CARTESIAN_POINT('Origin',(0.,0.,0.));
#498=CARTESIAN_POINT('',(34.3840404306673,47.9435134998914,1.));
#499=CARTESIAN_POINT('Origin',(0.,0.,1.));
#500=CARTESIAN_POINT('',(34.3840404306673,47.9435134998914,0.));
#501=CARTESIAN_POINT('Origin',(-29.5760475199473,41.2393577606862,0.));
#502=CARTESIAN_POINT('',(-36.5107915345542,36.770372871156,1.));
#503=CARTESIAN_POINT('',(-34.3841027032913,47.9434688392647,1.));
#504=CARTESIAN_POINT('Origin',(-29.5760475199473,41.2393577606862,1.));
#505=CARTESIAN_POINT('',(-34.3841027032913,47.9434688392647,0.));
#506=CARTESIAN_POINT('',(-36.5107915345542,36.770372871156,0.));
#507=CARTESIAN_POINT('Origin',(0.,0.,0.));
#508=CARTESIAN_POINT('Origin',(0.,0.,1.));
#509=CARTESIAN_POINT('Origin',(7.5632150203786E-6,44.1268035899244,1.));
#510=CARTESIAN_POINT('',(-24.7687240929083,34.5363620957591,1.));
#511=CARTESIAN_POINT('Origin',(-29.5767705344729,41.2404794437594,1.));
#512=CARTESIAN_POINT('',(24.768679476752,34.5363940934476,1.));
#513=CARTESIAN_POINT('Origin',(0.,0.,1.));
#514=CARTESIAN_POINT('',(36.5095507324632,36.7685695304249,1.));
#515=CARTESIAN_POINT('Origin',(29.5767172575333,41.2405176527639,1.));
#516=CARTESIAN_POINT('Origin',(29.5759939551327,41.2393961762536,1.));
#517=CARTESIAN_POINT('',(29.475,43.9507892420603,1.));
#518=CARTESIAN_POINT('Origin',(25.375,43.9507892420603,1.));
#519=CARTESIAN_POINT('',(-21.2743335647266,43.9496349423068,1.));
#520=CARTESIAN_POINT('Origin',(-25.3743335647266,43.9496349423068,1.));
#521=CARTESIAN_POINT('Origin',(29.5759939551327,41.2393961762536,0.));
#522=CARTESIAN_POINT('',(36.5095507324632,36.7685695304249,0.));
#523=CARTESIAN_POINT('Origin',(29.5767172575333,41.2405176527639,0.));
#524=CARTESIAN_POINT('',(24.768679476752,34.5363940934476,0.));
#525=CARTESIAN_POINT('Origin',(0.,0.,0.));
#526=CARTESIAN_POINT('',(-24.7687240929083,34.5363620957591,0.));
#527=CARTESIAN_POINT('Origin',(-29.5767705344729,41.2404794437594,0.));
#528=CARTESIAN_POINT('Origin',(25.375,43.9507892420603,0.));
#529=CARTESIAN_POINT('Origin',(-25.3743335647266,43.9496349423068,0.));
#530=UNCERTAINTY_MEASURE_WITH_UNIT(LENGTH_MEASURE(0.01),#534,
'DISTANCE_ACCURACY_VALUE',
'Maximum model space distance between geometric entities at asserted c
onnectivities');
#531=UNCERTAINTY_MEASURE_WITH_UNIT(LENGTH_MEASURE(1.E-6),#534,
'DISTANCE_ACCURACY_VALUE',
'Maximum model space distance between geometric entities at asserted c
onnectivities');
#532=(
GEOMETRIC_REPRESENTATION_CONTEXT(3)
GLOBAL_UNCERTAINTY_ASSIGNED_CONTEXT((#530))
GLOBAL_UNIT_ASSIGNED_CONTEXT((#534,#537,#535))
REPRESENTATION_CONTEXT('','3D')
);
#533=(
GEOMETRIC_REPRESENTATION_CONTEXT(3)
GLOBAL_UNCERTAINTY_ASSIGNED_CONTEXT((#531))
GLOBAL_UNIT_ASSIGNED_CONTEXT((#534,#537,#535))
REPRESENTATION_CONTEXT('','3D')
);
#534=(
LENGTH_UNIT()
NAMED_UNIT(*)
SI_UNIT(.MILLI.,.METRE.)
);
#535=(
NAMED_UNIT(*)
SI_UNIT($,.STERADIAN.)
SOLID_ANGLE_UNIT()
);
#536=DIMENSIONAL_EXPONENTS(0.,0.,0.,0.,0.,0.,0.);
#537=(
CONVERSION_BASED_UNIT('degree',#539)
NAMED_UNIT(#536)
PLANE_ANGLE_UNIT()
);
#538=(
NAMED_UNIT(*)
PLANE_ANGLE_UNIT()
SI_UNIT($,.RADIAN.)
);
#539=PLANE_ANGLE_MEASURE_WITH_UNIT(PLANE_ANGLE_MEASURE(0.01745329252),#538);
#540=SHAPE_DEFINITION_REPRESENTATION(#541,#542);
#541=PRODUCT_DEFINITION_SHAPE('',$,#544);
#542=SHAPE_REPRESENTATION('',(#298),#532);
#543=PRODUCT_DEFINITION_CONTEXT('part definition',#548,'design');
#544=PRODUCT_DEFINITION('Morini 500 Sicherung Scheibe hinten',
'Morini 500 Sicherung Scheibe hinten',#545,#543);
#545=PRODUCT_DEFINITION_FORMATION('',$,#550);
#546=PRODUCT_RELATED_PRODUCT_CATEGORY(
'Morini 500 Sicherung Scheibe hinten',
'Morini 500 Sicherung Scheibe hinten',(#550));
#547=APPLICATION_PROTOCOL_DEFINITION('international standard',
'automotive_design',2009,#548);
#548=APPLICATION_CONTEXT(
'Core Data for Automotive Mechanical Design Process');
#549=PRODUCT_CONTEXT('part definition',#548,'mechanical');
#550=PRODUCT('Morini 500 Sicherung Scheibe hinten',
'Morini 500 Sicherung Scheibe hinten',$,(#549));
#551=PRESENTATION_STYLE_ASSIGNMENT((#552));
#552=SURFACE_STYLE_USAGE(.BOTH.,#553);
#553=SURFACE_SIDE_STYLE('',(#554));
#554=SURFACE_STYLE_FILL_AREA(#555);
#555=FILL_AREA_STYLE('',(#556));
#556=FILL_AREA_STYLE_COLOUR('',#557);
#557=COLOUR_RGB('',0.745098039215686,0.737254901960784,0.729411764705882);
ENDSEC;
END-ISO-10303-21;
