ISO-10303-21;
HEADER;
/* Generated by software containing ST-Developer
 * from STEP Tools, Inc. (www.steptools.com) 
 */

FILE_DESCRIPTION(
/* description */ (''),
/* implementation_level */ '2;1');

FILE_NAME(
/* name */ 
'C:\\Users\\mfr\\Desktop\\mediatektur\\Morini 500 Sitzbank Bolzen.stp',

/* time_stamp */ '2020-04-13T16:34:09+02:00',
/* author */ ('mfr'),
/* organization */ (''),
/* preprocessor_version */ 'ST-DEVELOPER v16.5',
/* originating_system */ 'Autodesk Inventor 2017',
/* authorisation */ '');

FILE_SCHEMA (('AUTOMOTIVE_DESIGN { 1 0 10303 214 3 1 1 }'));
ENDSEC;

DATA;
#10=MECHANICAL_DESIGN_GEOMETRIC_PRESENTATION_REPRESENTATION('',(#13),#275);
#11=SHAPE_REPRESENTATION_RELATIONSHIP('SRR','None',#284,#12);
#12=ADVANCED_BREP_SHAPE_REPRESENTATION('',(#14),#274);
#13=STYLED_ITEM('',(#293),#14);
#14=MANIFOLD_SOLID_BREP('Volumenk\X\F6rper1',#149);
#15=CONICAL_SURFACE('',#174,2.85,45.);
#16=CONICAL_SURFACE('',#179,2.85,44.9999999999998);
#17=PLANE('',#160);
#18=PLANE('',#162);
#19=PLANE('',#167);
#20=PLANE('',#169);
#21=PLANE('',#178);
#22=PLANE('',#181);
#23=FACE_BOUND('',#48,.T.);
#24=FACE_BOUND('',#50,.T.);
#25=FACE_BOUND('',#52,.T.);
#26=FACE_BOUND('',#54,.T.);
#27=FACE_BOUND('',#56,.T.);
#28=FACE_BOUND('',#58,.T.);
#29=FACE_BOUND('',#60,.T.);
#30=FACE_BOUND('',#62,.T.);
#31=FACE_BOUND('',#64,.T.);
#32=FACE_BOUND('',#66,.T.);
#33=FACE_BOUND('',#69,.T.);
#34=FACE_OUTER_BOUND('',#47,.T.);
#35=FACE_OUTER_BOUND('',#49,.T.);
#36=FACE_OUTER_BOUND('',#51,.T.);
#37=FACE_OUTER_BOUND('',#53,.T.);
#38=FACE_OUTER_BOUND('',#55,.T.);
#39=FACE_OUTER_BOUND('',#57,.T.);
#40=FACE_OUTER_BOUND('',#59,.T.);
#41=FACE_OUTER_BOUND('',#61,.T.);
#42=FACE_OUTER_BOUND('',#63,.T.);
#43=FACE_OUTER_BOUND('',#65,.T.);
#44=FACE_OUTER_BOUND('',#67,.T.);
#45=FACE_OUTER_BOUND('',#68,.T.);
#46=FACE_OUTER_BOUND('',#70,.T.);
#47=EDGE_LOOP('',(#107));
#48=EDGE_LOOP('',(#108));
#49=EDGE_LOOP('',(#109));
#50=EDGE_LOOP('',(#110));
#51=EDGE_LOOP('',(#111));
#52=EDGE_LOOP('',(#112));
#53=EDGE_LOOP('',(#113));
#54=EDGE_LOOP('',(#114));
#55=EDGE_LOOP('',(#115));
#56=EDGE_LOOP('',(#116));
#57=EDGE_LOOP('',(#117));
#58=EDGE_LOOP('',(#118));
#59=EDGE_LOOP('',(#119));
#60=EDGE_LOOP('',(#120));
#61=EDGE_LOOP('',(#121));
#62=EDGE_LOOP('',(#122));
#63=EDGE_LOOP('',(#123));
#64=EDGE_LOOP('',(#124));
#65=EDGE_LOOP('',(#125));
#66=EDGE_LOOP('',(#126));
#67=EDGE_LOOP('',(#127));
#68=EDGE_LOOP('',(#128));
#69=EDGE_LOOP('',(#129));
#70=EDGE_LOOP('',(#130));
#71=CIRCLE('',#158,2.5);
#72=CIRCLE('',#159,2.5);
#73=CIRCLE('',#161,3.);
#74=CIRCLE('',#163,3.);
#75=CIRCLE('',#165,2.5);
#76=CIRCLE('',#166,2.5);
#77=CIRCLE('',#168,3.);
#78=CIRCLE('',#170,3.);
#79=CIRCLE('',#172,3.);
#80=CIRCLE('',#175,3.);
#81=CIRCLE('',#176,2.7);
#82=CIRCLE('',#180,2.7);
#83=VERTEX_POINT('',#236);
#84=VERTEX_POINT('',#238);
#85=VERTEX_POINT('',#241);
#86=VERTEX_POINT('',#244);
#87=VERTEX_POINT('',#247);
#88=VERTEX_POINT('',#249);
#89=VERTEX_POINT('',#252);
#90=VERTEX_POINT('',#255);
#91=VERTEX_POINT('',#258);
#92=VERTEX_POINT('',#262);
#93=VERTEX_POINT('',#264);
#94=VERTEX_POINT('',#269);
#95=EDGE_CURVE('',#83,#83,#71,.T.);
#96=EDGE_CURVE('',#84,#84,#72,.T.);
#97=EDGE_CURVE('',#85,#85,#73,.T.);
#98=EDGE_CURVE('',#86,#86,#74,.T.);
#99=EDGE_CURVE('',#87,#87,#75,.T.);
#100=EDGE_CURVE('',#88,#88,#76,.T.);
#101=EDGE_CURVE('',#89,#89,#77,.T.);
#102=EDGE_CURVE('',#90,#90,#78,.T.);
#103=EDGE_CURVE('',#91,#91,#79,.T.);
#104=EDGE_CURVE('',#92,#92,#80,.T.);
#105=EDGE_CURVE('',#93,#93,#81,.T.);
#106=EDGE_CURVE('',#94,#94,#82,.T.);
#107=ORIENTED_EDGE('',*,*,#95,.T.);
#108=ORIENTED_EDGE('',*,*,#96,.F.);
#109=ORIENTED_EDGE('',*,*,#97,.F.);
#110=ORIENTED_EDGE('',*,*,#95,.F.);
#111=ORIENTED_EDGE('',*,*,#98,.F.);
#112=ORIENTED_EDGE('',*,*,#96,.T.);
#113=ORIENTED_EDGE('',*,*,#99,.T.);
#114=ORIENTED_EDGE('',*,*,#100,.F.);
#115=ORIENTED_EDGE('',*,*,#101,.F.);
#116=ORIENTED_EDGE('',*,*,#99,.F.);
#117=ORIENTED_EDGE('',*,*,#102,.F.);
#118=ORIENTED_EDGE('',*,*,#100,.T.);
#119=ORIENTED_EDGE('',*,*,#102,.T.);
#120=ORIENTED_EDGE('',*,*,#103,.F.);
#121=ORIENTED_EDGE('',*,*,#101,.T.);
#122=ORIENTED_EDGE('',*,*,#98,.T.);
#123=ORIENTED_EDGE('',*,*,#104,.T.);
#124=ORIENTED_EDGE('',*,*,#105,.T.);
#125=ORIENTED_EDGE('',*,*,#97,.T.);
#126=ORIENTED_EDGE('',*,*,#104,.F.);
#127=ORIENTED_EDGE('',*,*,#105,.F.);
#128=ORIENTED_EDGE('',*,*,#103,.T.);
#129=ORIENTED_EDGE('',*,*,#106,.T.);
#130=ORIENTED_EDGE('',*,*,#106,.F.);
#131=CYLINDRICAL_SURFACE('',#157,2.5);
#132=CYLINDRICAL_SURFACE('',#164,2.5);
#133=CYLINDRICAL_SURFACE('',#171,3.);
#134=CYLINDRICAL_SURFACE('',#173,3.);
#135=CYLINDRICAL_SURFACE('',#177,3.);
#136=ADVANCED_FACE('',(#34,#23),#131,.T.);
#137=ADVANCED_FACE('',(#35,#24),#17,.F.);
#138=ADVANCED_FACE('',(#36,#25),#18,.F.);
#139=ADVANCED_FACE('',(#37,#26),#132,.T.);
#140=ADVANCED_FACE('',(#38,#27),#19,.F.);
#141=ADVANCED_FACE('',(#39,#28),#20,.F.);
#142=ADVANCED_FACE('',(#40,#29),#133,.T.);
#143=ADVANCED_FACE('',(#41,#30),#134,.T.);
#144=ADVANCED_FACE('',(#42,#31),#15,.T.);
#145=ADVANCED_FACE('',(#43,#32),#135,.T.);
#146=ADVANCED_FACE('',(#44),#21,.F.);
#147=ADVANCED_FACE('',(#45,#33),#16,.T.);
#148=ADVANCED_FACE('',(#46),#22,.T.);
#149=CLOSED_SHELL('',(#136,#137,#138,#139,#140,#141,#142,#143,#144,#145,
#146,#147,#148));
#150=DATE_TIME_ROLE('creation_date');
#151=APPLIED_DATE_AND_TIME_ASSIGNMENT(#152,#150,(#286));
#152=DATE_AND_TIME(#153,#154);
#153=CALENDAR_DATE(2020,27,3);
#154=LOCAL_TIME(14,56,36.,#155);
#155=COORDINATED_UNIVERSAL_TIME_OFFSET(0,0,.BEHIND.);
#156=AXIS2_PLACEMENT_3D('placement',#234,#182,#183);
#157=AXIS2_PLACEMENT_3D('',#235,#184,#185);
#158=AXIS2_PLACEMENT_3D('',#237,#186,#187);
#159=AXIS2_PLACEMENT_3D('',#239,#188,#189);
#160=AXIS2_PLACEMENT_3D('',#240,#190,#191);
#161=AXIS2_PLACEMENT_3D('',#242,#192,#193);
#162=AXIS2_PLACEMENT_3D('',#243,#194,#195);
#163=AXIS2_PLACEMENT_3D('',#245,#196,#197);
#164=AXIS2_PLACEMENT_3D('',#246,#198,#199);
#165=AXIS2_PLACEMENT_3D('',#248,#200,#201);
#166=AXIS2_PLACEMENT_3D('',#250,#202,#203);
#167=AXIS2_PLACEMENT_3D('',#251,#204,#205);
#168=AXIS2_PLACEMENT_3D('',#253,#206,#207);
#169=AXIS2_PLACEMENT_3D('',#254,#208,#209);
#170=AXIS2_PLACEMENT_3D('',#256,#210,#211);
#171=AXIS2_PLACEMENT_3D('',#257,#212,#213);
#172=AXIS2_PLACEMENT_3D('',#259,#214,#215);
#173=AXIS2_PLACEMENT_3D('',#260,#216,#217);
#174=AXIS2_PLACEMENT_3D('',#261,#218,#219);
#175=AXIS2_PLACEMENT_3D('',#263,#220,#221);
#176=AXIS2_PLACEMENT_3D('',#265,#222,#223);
#177=AXIS2_PLACEMENT_3D('',#266,#224,#225);
#178=AXIS2_PLACEMENT_3D('',#267,#226,#227);
#179=AXIS2_PLACEMENT_3D('',#268,#228,#229);
#180=AXIS2_PLACEMENT_3D('',#270,#230,#231);
#181=AXIS2_PLACEMENT_3D('',#271,#232,#233);
#182=DIRECTION('axis',(0.,0.,1.));
#183=DIRECTION('refdir',(1.,0.,0.));
#184=DIRECTION('center_axis',(0.,0.,1.));
#185=DIRECTION('ref_axis',(-1.,0.,0.));
#186=DIRECTION('center_axis',(0.,0.,1.));
#187=DIRECTION('ref_axis',(1.,0.,0.));
#188=DIRECTION('center_axis',(0.,0.,1.));
#189=DIRECTION('ref_axis',(1.,0.,0.));
#190=DIRECTION('center_axis',(0.,0.,-1.));
#191=DIRECTION('ref_axis',(-1.,0.,0.));
#192=DIRECTION('center_axis',(0.,0.,-1.));
#193=DIRECTION('ref_axis',(-1.,0.,0.));
#194=DIRECTION('center_axis',(0.,0.,1.));
#195=DIRECTION('ref_axis',(1.,0.,0.));
#196=DIRECTION('center_axis',(0.,0.,1.));
#197=DIRECTION('ref_axis',(-1.,0.,0.));
#198=DIRECTION('center_axis',(0.,0.,1.));
#199=DIRECTION('ref_axis',(-1.,0.,0.));
#200=DIRECTION('center_axis',(0.,0.,1.));
#201=DIRECTION('ref_axis',(1.,0.,0.));
#202=DIRECTION('center_axis',(0.,0.,1.));
#203=DIRECTION('ref_axis',(1.,0.,0.));
#204=DIRECTION('center_axis',(0.,0.,-1.));
#205=DIRECTION('ref_axis',(-1.,0.,0.));
#206=DIRECTION('center_axis',(0.,0.,-1.));
#207=DIRECTION('ref_axis',(-1.,0.,0.));
#208=DIRECTION('center_axis',(0.,0.,1.));
#209=DIRECTION('ref_axis',(1.,0.,0.));
#210=DIRECTION('center_axis',(0.,0.,1.));
#211=DIRECTION('ref_axis',(-1.,0.,0.));
#212=DIRECTION('center_axis',(0.,0.,1.));
#213=DIRECTION('ref_axis',(-1.,0.,0.));
#214=DIRECTION('center_axis',(0.,0.,1.));
#215=DIRECTION('ref_axis',(-1.,0.,0.));
#216=DIRECTION('center_axis',(0.,0.,1.));
#217=DIRECTION('ref_axis',(-1.,0.,0.));
#218=DIRECTION('center_axis',(0.,0.,1.));
#219=DIRECTION('ref_axis',(-1.,0.,0.));
#220=DIRECTION('center_axis',(0.,0.,-1.));
#221=DIRECTION('ref_axis',(-1.,0.,0.));
#222=DIRECTION('center_axis',(0.,0.,1.));
#223=DIRECTION('ref_axis',(-1.,0.,0.));
#224=DIRECTION('center_axis',(0.,0.,1.));
#225=DIRECTION('ref_axis',(-1.,0.,0.));
#226=DIRECTION('center_axis',(0.,0.,1.));
#227=DIRECTION('ref_axis',(1.,0.,0.));
#228=DIRECTION('center_axis',(0.,0.,-1.));
#229=DIRECTION('ref_axis',(-1.,0.,0.));
#230=DIRECTION('center_axis',(0.,0.,-1.));
#231=DIRECTION('ref_axis',(-1.,0.,0.));
#232=DIRECTION('center_axis',(0.,0.,1.));
#233=DIRECTION('ref_axis',(1.,0.,0.));
#234=CARTESIAN_POINT('',(0.,0.,0.));
#235=CARTESIAN_POINT('Origin',(0.,0.,2.4));
#236=CARTESIAN_POINT('',(-2.5,0.,1.8));
#237=CARTESIAN_POINT('Origin',(0.,0.,1.8));
#238=CARTESIAN_POINT('',(-2.5,0.,3.));
#239=CARTESIAN_POINT('Origin',(0.,0.,3.));
#240=CARTESIAN_POINT('Origin',(-3.,0.,1.8));
#241=CARTESIAN_POINT('',(-3.,0.,1.8));
#242=CARTESIAN_POINT('Origin',(0.,0.,1.8));
#243=CARTESIAN_POINT('Origin',(-2.5,0.,3.));
#244=CARTESIAN_POINT('',(-3.,0.,3.));
#245=CARTESIAN_POINT('Origin',(0.,0.,3.));
#246=CARTESIAN_POINT('Origin',(0.,0.,57.6));
#247=CARTESIAN_POINT('',(-2.5,0.,57.));
#248=CARTESIAN_POINT('Origin',(0.,0.,57.));
#249=CARTESIAN_POINT('',(-2.5,0.,58.2));
#250=CARTESIAN_POINT('Origin',(0.,0.,58.2));
#251=CARTESIAN_POINT('Origin',(-3.,0.,57.));
#252=CARTESIAN_POINT('',(-3.,0.,57.));
#253=CARTESIAN_POINT('Origin',(0.,0.,57.));
#254=CARTESIAN_POINT('Origin',(-2.5,0.,58.2));
#255=CARTESIAN_POINT('',(-3.,0.,58.2));
#256=CARTESIAN_POINT('Origin',(0.,0.,58.2));
#257=CARTESIAN_POINT('Origin',(0.,0.,0.));
#258=CARTESIAN_POINT('',(3.,3.67394039744206E-16,59.7));
#259=CARTESIAN_POINT('Origin',(0.,0.,59.7));
#260=CARTESIAN_POINT('Origin',(0.,0.,0.));
#261=CARTESIAN_POINT('Origin',(0.,0.,0.15));
#262=CARTESIAN_POINT('',(3.,-3.67394039744206E-16,0.3));
#263=CARTESIAN_POINT('Origin',(0.,0.,0.3));
#264=CARTESIAN_POINT('',(2.7,3.30654635769785E-16,0.));
#265=CARTESIAN_POINT('Origin',(0.,0.,0.));
#266=CARTESIAN_POINT('Origin',(0.,0.,0.));
#267=CARTESIAN_POINT('Origin',(-3.39011454596783E-16,7.70988211545247E-17,
0.));
#268=CARTESIAN_POINT('Origin',(0.,0.,59.85));
#269=CARTESIAN_POINT('',(2.7,-3.30654635769785E-16,60.));
#270=CARTESIAN_POINT('Origin',(0.,0.,60.));
#271=CARTESIAN_POINT('Origin',(-3.39011454596783E-16,7.70988211545247E-17,
60.));
#272=UNCERTAINTY_MEASURE_WITH_UNIT(LENGTH_MEASURE(0.01),#276,
'DISTANCE_ACCURACY_VALUE',
'Maximum model space distance between geometric entities at asserted c
onnectivities');
#273=UNCERTAINTY_MEASURE_WITH_UNIT(LENGTH_MEASURE(1.E-6),#276,
'DISTANCE_ACCURACY_VALUE',
'Maximum model space distance between geometric entities at asserted c
onnectivities');
#274=(
GEOMETRIC_REPRESENTATION_CONTEXT(3)
GLOBAL_UNCERTAINTY_ASSIGNED_CONTEXT((#272))
GLOBAL_UNIT_ASSIGNED_CONTEXT((#276,#279,#277))
REPRESENTATION_CONTEXT('','3D')
);
#275=(
GEOMETRIC_REPRESENTATION_CONTEXT(3)
GLOBAL_UNCERTAINTY_ASSIGNED_CONTEXT((#273))
GLOBAL_UNIT_ASSIGNED_CONTEXT((#276,#279,#277))
REPRESENTATION_CONTEXT('','3D')
);
#276=(
LENGTH_UNIT()
NAMED_UNIT(*)
SI_UNIT(.MILLI.,.METRE.)
);
#277=(
NAMED_UNIT(*)
SI_UNIT($,.STERADIAN.)
SOLID_ANGLE_UNIT()
);
#278=DIMENSIONAL_EXPONENTS(0.,0.,0.,0.,0.,0.,0.);
#279=(
CONVERSION_BASED_UNIT('degree',#281)
NAMED_UNIT(#278)
PLANE_ANGLE_UNIT()
);
#280=(
NAMED_UNIT(*)
PLANE_ANGLE_UNIT()
SI_UNIT($,.RADIAN.)
);
#281=PLANE_ANGLE_MEASURE_WITH_UNIT(PLANE_ANGLE_MEASURE(0.01745329252),#280);
#282=SHAPE_DEFINITION_REPRESENTATION(#283,#284);
#283=PRODUCT_DEFINITION_SHAPE('',$,#286);
#284=SHAPE_REPRESENTATION('',(#156),#274);
#285=PRODUCT_DEFINITION_CONTEXT('part definition',#290,'design');
#286=PRODUCT_DEFINITION('Morini 500 Sitzbank Bolzen',
'Morini 500 Sitzbank Bolzen',#287,#285);
#287=PRODUCT_DEFINITION_FORMATION('',$,#292);
#288=PRODUCT_RELATED_PRODUCT_CATEGORY('Morini 500 Sitzbank Bolzen',
'Morini 500 Sitzbank Bolzen',(#292));
#289=APPLICATION_PROTOCOL_DEFINITION('international standard',
'automotive_design',2009,#290);
#290=APPLICATION_CONTEXT(
'Core Data for Automotive Mechanical Design Process');
#291=PRODUCT_CONTEXT('part definition',#290,'mechanical');
#292=PRODUCT('Morini 500 Sitzbank Bolzen','Morini 500 Sitzbank Bolzen',
$,(#291));
#293=PRESENTATION_STYLE_ASSIGNMENT((#294));
#294=SURFACE_STYLE_USAGE(.BOTH.,#295);
#295=SURFACE_SIDE_STYLE('',(#296));
#296=SURFACE_STYLE_FILL_AREA(#297);
#297=FILL_AREA_STYLE('',(#298));
#298=FILL_AREA_STYLE_COLOUR('',#299);
#299=COLOUR_RGB('',0.745098039215686,0.737254901960784,0.729411764705882);
ENDSEC;
END-ISO-10303-21;
